» » »

Harmonium, Dixie Tabs (ver.1)

Artists:  A B C D E F G H I J K L M N O P Q R S T U V W X Y Z # 

Dixie Tabs (ver.1)

Harmonium Tabs
 Rating:
4.2/5 (5 votes)
Dixie lessons Tabs too difficult? Try these video lessons and learn fast
                #



On Sun, 4 May 1997, Frederic Dionne wrote: I had problems with

>
> Hi! This is a song from Harmonium, an old band from Quebec Canada.  I
think
> that this song is really missing to your archive..so here it is...
>
> Group: HARMONIUM
> Song : Dixie
>
> INTRO
>          (A)  (A7) (D)  (Do7)  (A)  (E7)  (A)
> |-0 2 4------------------------------ 0--------------------0 2 4-|
> |---------0----0----------------0-----2----0---------------------|
> |---------2----2----0-----1-----2-----0----2---------------------|
> |---------2----0----2-----2-----2-----1----2---------------------|
> |---------2----2----3-----1-----2-----0----2---14-13-12-10-------|
> |---------0----0----2-----2-----0-----0----0---0--0--0--0--------|
>
>
>
> - PART 1 -
>
> (A)
> Dis moi c'est quoi ta toune,
> (Em)     (A7)                (D)
> Qui m'revient dans les oreilles tout le temps,
> (Do7)                                (Fm#)         (B7)
> Si c'est moi, j'ai plus bien bien le temps comme avant,
>         (Fm#)         (B7)
> Plus le temps, comme avant
>      (D)           (E7)
> Pour remplir mes oreilles
>
>
> (A)
> Dis moi c'est quoi ta toune,
> (Em)     (A7)             (D)
> Qui m'revient comme le soleil tout le temps,
> (Do7)                                (Fm#)              (B7)
> Quand il vient, c'est jamais pour longtemps de temps en temps,
>          (Fm#)              (B7)
> Pour longtemps, de temps en temps
>      (D)           (E7)
> Pour chauffer mes oreilles
>
> - PART 2 -
>
>
>   (D7)      (C#7add-F#)      (Bm)  (E7)                        (D7)
>   Hey,      toi fais-en du pareil, ote tes doigts de dans tes or(eilles)
> (2x)
> |---------|---------------------|
> |-5-///---|-4-///----4-///----2-|
> |-7-------|-6--------6--------4-|  (Stop at E7, the second time...)
> |-5-------|-4--------4--------4-|
> |-7-------|-7--------6--------3-|
> |-5-------|-4--------4--------2-|
>
> - PART3 -
>
>  Bep Bop bi doo.....
>
>       (A#)   (Em)   (A7)    (D)  (D/E)   (DaddG)  (D)    (2x)
>  |------------0-----------|--------------------------|
>  |-0 - 1-///--2-/----0----|--------------------------|
>  |-----3------2------2----|--0-----0--------0------0-|
>  |-----3------0------0----|--2-----2--------2------2-|
>  |-----3------0------2----|--3-----3--------3------3-|
>  |----(1)-----0------0----|--1-----0--------3------2-|
>
>
> REPEAT Part 1
>
> REPEAT Part 2  (Stop at E7...)
>
> REPEAT Part 3  (8x)
>
>
> END : A, A7, D, Do7, A , E7, A |------------|
>                                |------------|
>                                |------------|
>                                |------------|
>                                |14-13-12-10-|
>                                |0--0--0--0--|
>
>
>
>
>
>
>
            
Submit corrections

comments powered by Disqus
↑ Back to top | Harmonium Tabs for Dixie. Lyrics for acoustic guitar and electric guitar. Tablatures and chords are parodies/interpretations of the original songs. You may use it for private study, scholarship, research or language learning purposes only