>
 >
100000 Raisons

100000 Raisons Guitar Tabs

Harmonium - 100000 Raisons chords, tabs, tablatures, lyrics

Guitar lessons | Add/correct | Request | Top 50 tabs Artists:  A B C D E F G H I J K L M N O P Q R S T U V W X Y Z 0-9

100000 Raisons Guitar Tabs – Harmonium

CD, Sheet music, Poster

Do you like 100000 Raisons? Share with your friends now
ChordsTabsUkulele
Harmonium - 100 000 raisons
Partition: Patrick Chamberland


- Capo 3ieme frettes



E||-----0-----0-----2-----2--|-----0-----0-----0-----0--|
B||-----1-----1-----1-----1--|-----3-----3-----2-----2--|
G||--0--0--0--0--2--2--2--2--|-----0-----0-----0-----0--|
D||--2-----2-----0-----0-----|-----2--2--2--2-----2-----|
A||--0-----0-----------------|--2-----2-----0-----0-----|
E||--------------------------|--0-----0-----------------|


                                                      
-----0-----0-----2-----0--|-----0-----0-----0-----0--|
-----0-----0-----1-----0--|-----3-----3-----2-----2--|
-----0-----0-----2-----0--|-----0-----0-----0-----0--|
--2-----2-----2-----2-----|-----2--2--2--2-----2-----|
--3-----3-----0-----0-----|--2-----2-----0-----0-----|
--------------------------|--0-----0-----------------|


                                                     
--2---x-2---0-----------2-|------0----------0-----0-|
--2---x-2---0-----0-----0-|------0----------0-----0-|
--2---x-2---0-----2-----2-|------0-0---0----0-0---0-|
--4---x-4---0-1-----1-----|--2-----2---0------0-----|
--4-----4-----2-----2-----|--2----------------------|
--2-----2-----------------|--0----------------------|


                                                      
------0-----0-----2-----0-|--3-----------------------|
------1-----1-----1-----0-|--3-----------------------|
------0-----0-2---2-2---0-|--0-------0-----0------0--|
--2-----2-----0-----0-----|--0-----------------------|
--3-----3-----------------|--x---------0h2----0h2----|
--------------------------|--3-----------------------|


                                                      
-----0-----0-----2-----2--|-----0-----0-----0-----0--|
-----1-----1-----1-----1--|-----3-----3-----2-----2--|
--0--0--0--0--2--2--2--2--|-----0-----0-----0-----0--|
--2-----2-----0-----0-----|-----2--2--2--2-----2-----|
--0-----0-----------------|--2-----2-----0-----0-----|
--------------------------|--0-----0-----------------|


                                                      
-----0-----0-----2-----0--|-----0-----0-----0-----0--|
-----0-----0-----1-----0--|-----3-----3-----2-----2--|
-----0-----0-----2-----0--|-----0-----0-----0-----0--|
--2-----2-----2-----2-----|-----2--2--2--2-----2-----|
--3-----3-----0-----0-----|--2-----2-----0-----0-----|
--------------------------|--0-----0-----------------|


                                                     
--2---x-2---0-----------2-|------0----------0-----0-|
--2---x-2---0-----0-----0-|------0----------0-----0-|
--2---x-2---0-----2-----2-|------0-0---0----0-0---0-|
--4---x-4---0-1-----1-----|--2-----2---0------0-----|
--4-----4-----2-----2-----|--2----------------------|
--2-----2-----------------|--0----------------------|


                                                      
------0-----0-----2-----0-|--3-----------------------|
------1-----1-----1-----0-|--3-----------------------|
------0-----0-2---2-2---0-|--0-------0-----0------0--|
--2-----2-----0-----0-----|--0-----------------------|
--3-----3-----------------|--x---------0h2----0h2----|
--------------------------|--3-----------------------|


                                                    
------------3------------|------------3------------|
------3-----3----3-----3-|------3-----3----3-----3-|
--------0----------0-----|--------0----------0-----|
-------------------0-----|-------------------0-----|
-------------------------|-------------------------|
--3----------------------|--1----------------------|


                                                    
------------3------------|------------3------------|
------3-----3----3-----3-|------3-----3----3-----3-|
--------0----------0-----|--------0----------0-----|
-------------------0-----|-------------------0-----|
--3----------------------|--3----------------------|
-------------------------|-------------------------|


                                                    
------------3------------|------------3------------|
------3-----3----3-----3-|------3-----3----3-----3-|
--------0----------0-----|--------0----------0-----|
-------------------0-----|-------------------0-----|
-------------------------|-------------------------|
--3----------------------|--1----------------------|


                                                    
------------3------------|------------3------------|
------3-----3----3-----3-|------3-----3----3-----3-|
--------0----------0-----|--------0----------0-----|
-------------------0-----|-------------------0-----|
--3----------------------|--3----------------------|
-------------------------|-------------------------|


                                                   
|---0------------2-----|--------------------------|
|---0--------x---3-----|--------------------------|
|*--1--------x---2-----|--2-----2-----2-----2-----|
|*--2--------x---0-----|--0---0-0---0-0---0-0---0-|
|---2--------x---------|--------------------------|
|---0------------------|--------------------------|


                                                   
--0------------2-----|---------------------------||
--0--------x---3-----|---------------------------||
--1--------x---2-----|--2-----2-----2-----2-----*||
--2--------x---0-----|--0---0-0---0-0---0-0---0-*||
--2--------x---------|---------------------------||
--0------------------|---------------------------||


                                                          
--0----------------|------------------|------------------|
--0----------------|------------------|------------------|
--1----------------|------------------|------------------|
--2----------------|------------------|------------------|
--2----------------|------------------|------------------|
--0----------------|------------------|------------------|


                    
------------------||
------------------||
------------------||
------------------||
------------------||
------------------||





Comments


Popular Harmonium tabs & chords
Attends-moi Chords
Depuis Automne Chords
Depuis Lautomne Chords
Harmonium Chords
Pour Un Instant 1 Chords
Vert Chords
Dixie Tabs
Depuis Automne Ukulele
Un Musicien Parmi Tant Dautres Ukulele
Vert Ukulele


Song lyrics



↑ Back to top | Tablatures and chords are parodies/interpretations of the original songs. You may use it for private study, scholarship, research or language learning purposes only
© 2014 AZChords.com Contact us | Privacy policy | DMCA | Add/correct tabs | Request tabs | Top 50 tabs