>
 >
Something To Say 5

Something To Say 5 Guitar Tabs

Harem Scarem - Something To Say 5 chords, tabs, tablatures, lyrics

Guitar lessons | Add/correct | Request | Top 50 tabs Artists:  A B C D E F G H I J K L M N O P Q R S T U V W X Y Z 0-9

Something To Say 5 Guitar Tabs – Harem Scarem

CD, Sheet music, Poster

Do you like Something To Say 5? Share with your friends now
ChordsChords v2TabsTabs v2Tabs v3Tabs v4Tabs v5Tabs v6Ukulele
                                                              
                           
E||-------------------|---------<>12-------------------------------|
B||-------------------|---------------<>12-------------------------|
G||-------------------|---------------------<>12---<>L-------------|
D||-------------------|--------------------------------<>12--<>L---|
A||-------------------|--------------------------------------------|
E||-------------------|--0-----------------------------------------|


                         
-----------------------------<>12----0---|--3--5-2-3------2-----------|
-------------------------8-----------0---|-------------------3--5--4--|
--------------------7h-9-------------0---|------------0-2-------------|
---------------2s-9----------------------|--2--4-1-2------0-----------|
----------2h-5---------------------------|-------------------2--3--2--|
--0h-3h-5--------------------------------|----------------------------|


  
--3--5-2-3--5--2--5h-7p-5------7p-5h-7---|--3--5-2-3--5--2------------|
------------------7-------8-7--7-------8-|------------------3--5---4--|
-----------------------------------------|-----------------------0-4--|
--2--4-1-2--4--0-------------------------|--2--4-1-2--4--0------------|
----------------------------6------------|------------------2--3---2--|
-----------------------------------------|----------------------------|


                   
--0--3--0-----0--3--0-----|--0------------------------------------<>12----|
--1--------1--3--------3--|---------0-------------------------------------|
--0-----------2-----------|----<>12--------0----------------<>12----------|
--2-----------0-----------|-----------<>14--------------------------------|
--3-----------0-----------|------------------<>14-7-----------------------|
--------------2-----------|-------------------------<>12-0----------------|


  
-------------------|----------------------------------|
-------------------|----8-------8-------8-------8-----|
-------------------|------9-------9-------9-------9---|
-------------------|--------9-------9-------9-------9-|
-------------------|--7-------7-------7-------6-------|
-------------------|----------------------------------|


  
----------------------------------|----------------------------------|
----8-------8-------8-------8-----|----8-------7-------7-------5-----|
------9-------9-------9-------9---|------9-------4-------4-------2---|
--------9-------9-------9-------9-|--------9-------7-------7-------5-|
--7-------7-------7-------6-------|--7-------6-------5-------4-------|
----------------------------------|----------------------------------|


   
----------------------------------|----------------------------------|
----5-------5-------5-------7-----|----8-------7-------7-------5-----|
------2-------2-------2-------4---|------9-------4-------4-------2---|
--------5-------5-------5-------7-|--------9-------7-------7-------5-|
--3-------2-------3-------6-------|--7-------6-------5-------4-------|
----------------------------------|----------------------------------|


      
-----------------------------|-----------------------------14----|
----5-------5----------------|--12------13p-12-----10------------|
------2-------2------0-------|-----------------12------11--------|
--------5-------5------------|------12--12---------12------------|
--3-------2-------0----------|--10-------------------------------|
------------------------0----|-----------------------------------|


    
-------10p-7----------11----|---------------------------------|
--8----------8--7-----------|----5-------5-------7---------8--|
-------------------8--------|------5-------6-------7----------|
----------------------------|--------5-------7-------7--------|
--7-----7-------6-----------|--3-------4-------5-------/7--7--|
----------------------------|---------------------------------|


      
-------------------------------------|----------------------------------|
--7--<>7------------8p-7p-5----------|----8-------7-------7-------5-----|
----------<>7---------------7-<>7----|------9-------8-------7-------6---|
---------------<>7-------------------|--------9-------9-------7-------7-|
--5--<>7-----------------------------|--7-------6-------5-------4-------|
-------------------------------------|----------------------------------|


    
----------------------------------|----------------------------------|
----5-------3-------5-------7-----|----8-------7-------7-------5-----|
------5-------4-------5-------8---|------9-------8-------7-------6---|
--------5-------5-------5-------9-|--------9-------9-------7-------7-|
--3-------4-------3-------6-------|--7-------6-------5-------4-------|
----------------------------------|----------------------------------|


     
-------------------------------|-----------------------------14----|
----5-------3-------1----------|--12------13p-12-----10------------|
------5-------4-------2--------|-----------------12------11--------|
--------5-------5-------4------|------12--12---------12------------|
--3-------2-------0------------|--10-------------------------------|
--------------------------3----|-----------------------------------|


  
-------10p-7----------11----|----------------------------------|
--8----------8--7-----------|----5-------5-------7-------7-----|
-------------------8--------|------5-------6-------7-------8---|
----------------------------|--------5-------7-------7-------9-|
--7-----7-------6-----------|--5-------4-------5-------6-------|
----------------------------|----------------------------------|


   
----------------------------------|----------------------------------|
----5-------5-------7-------7-----|----5-------5-------7-------7-----|
------5-------6-------7-------8---|------5-------6-------7-------8---|
--------5-------7-------7-------9-|--------5-------7-------7-------9-|
--3-------4-------5-------6-------|--5-------4-------5-------6-------|
----------------------------------|----------------------------------|


  
---------------------------------------------|
----8-------10----------12----------13-------|
------9--------11----------12----------14----|
--------9---------12----------12----------16-|
--7-------9----------10----------12----------|
---------------------------------------------|


     
-------------------------------------------------|
-----15----------17----------19-------20--15--LS-|
--------16----------17----------19--------14--LS-|
-----------17----------17----------19------------|
--14----------15----------17---------------------|
-------------------------------------------------|


                                     
-------------------------------------------|--------3------------|
--8----8p-0--------------------------------|--------3------------|
--7---------7p-0---------0-----------------|--------0------------|
-----------------0h-2h-4---0h-2p-0---------|--------0------------|
-----------------------------------0h-2p-0-|--------2------------|
-------------------------------------------|-----3--3------------|


 
------------------|-------------5p--2--------|---------------0-----------|
------------------|--3-----------------3-----|------------------0--------|
------------------|--2-------2------------2--|---------4-----------4-----|
------------------|--0----0------------------|------------2-----------2--|
------------------|--------------------------|--2s--4--------------------|
------------------|--------------------------|---------------------------|


  
------------3----L--L--|--3s--5----5s--3---------|--2----------5p--2--------|
------------3----L--L--|--3s--5----5s--3---------|--3-----------------3-----|
--------------------0--|-------------------------|--2-------2------------2--|
-----------------0-----|----------------------0--|-------0------------------|
-----------------------|-------------------------|--------------------------|
--2----3---------------|-------------------------|--------------------------|


    
---------------0-----------|------------3---------|
------------------0--------|------------3----2----|
---------4-----------4-----|-----------------2----|
------------2-----------2--|-----------------2----|
--2s--4--------------------|-----------------0----|
---------------------------|--2----3--------------|


      
-------------10p--9-------------|-----------------------|--------------------
---------10----------10---------|-------------3---------|--3---------3-------
--2S--9------------------9S--6--|--7~---------2---------|--2---------2-------
--------------------------------|--------0---------0----|-------0---------0--
--------------------------------|-----------------------|--------------------
--------------------------------|-----------------------|--------------------


    
--2---------2---------|--2---------2---------|--7---------7---------|
--3---------3---------|--2---------2---------|--8---------8---------|
----------------------|----------------------|-------7---------7----|
-------0---------0----|-------0---------0----|----------------------|
----------------------|----------------------|----------------------|
----------------------|----------------------|----------------------|


   
--6---------12p--10----------|------------2---------|--2---------2---------|
--5------------------11------|--3---------3---------|--2---------2---------|
-------------------------12--|--2-------------------|----------------------|
-------0---------------------|-------0---------0----|-------0---------0----|
-----------------------------|----------------------|----------------------|
-----------------------------|----------------------|----------------------|


 
--7---------7---------|--6---------12p--10----------|--------------2---------
--8---------8---------|--5------------------11------|-----------3-----3------
-------7---------7----|------------12-------12--12--|--------4-----------4---
----------------------|-------0---------------------|-----4-----------------
----------------------|-----------------------------|--2---------------------
----------------------|-----------------------------|------------------------


    
-----------0--------------|-----------------------|-------------------------|
-----------0--0-----------|----------3------------|-----3--3-----------0----|
--------2--------2--------|-------0-------0-------|-----0--0-----------2----|
-----2--------------2-----|------------------0----|-----------------2-------|
--0-----------------------|-----------------------|-----------2--0----------|
-----------------------0--|--3--------------------|--3----------------------|


      
--------------------2-----|-----------0--L-----2----|------------------------
-----------3-----------3--|-----------0--L-----0----|-----------3--L---------
--------4-----4-----------|--------2--------2-------|--------0--------0------
-----4-----------4--------|-----2-------------------|-----0--------------0---
--2-----------------------|--0----------------------|------------------------
--------------------------|-------------------------|--3---------------------


     
-------------------|----------10p--9-------------|-----------------------|
--2----------------|--L---------------10---------|-------------3---------|
--2----------------|--L-------------------9S--6--|--7~---------2---------|
--2----------------|--L--------------------------|--------0---------0----|
--0----------------|--L--------------------------|-----------------------|
-------------------|-----------------------------|-----------------------|


   
--2--------2---------|--7---------7---------|--6---------12p--10----------|
--2--------2---------|--8---------8---------|--5------------------11------|
---------------------|-------7---------7----|------------12-------12--12--|
----------------0----|----------------------|-------0---------------------|
---------------------|----------------------|-----------------------------|
---------------------|----------------------|-----------------------------|


    
------------2---------|------------5---------|--7---------7---------|
--3---------3---------|--7---------7---------|--8---------8---------|
--2-------------------|--6---------6---------|-------7---------7----|
-------0---------0----|-------0---------0----|----------------------|
----------------------|----------------------|----------------------|
----------------------|----------------------|----------------------|


    
--6---------12p--10----------|--------------2-----------|
--5------------------11------|-----------3-----3--------|
------------12-------12--12--|--------4-----------4-----|
-------0---------------------|-----4-----------------4--|
-----------------------------|--2-----------------------|
-----------------------------|--------------------------|


    
-----------0--------------|-----------------------|-------------------------|
-----------0--0-----------|----------3------------|-----3--3-----------0----|
--------2--------2--------|-------0-------0-------|-----0--0-----------2----|
-----2--------------2-----|------------------0----|-----------------2-------|
--0-----------------------|-----------------------|-----------2--0----------|
-----------------------0--|--3--------------------|--3----------------------|


    
--------------------2-----|-----------0--L-----2----|------------------------
-----------3-----------3--|-----------0--L-----0----|-----------3--L---------
--------4-----4-----------|--------2--------2-------|--------0--------0------
-----4-----------4--------|-----2-------------------|-----0--------------0---
--2-----------------------|--0----------------------|------------------------
--------------------------|-------------------------|--3---------------------


      
-------------------|-------------------|-----------2--2--2--0----|
--2----------------|--L----------------|--------3-----3--3--3----|
--2----------------|--L----------------|-----2-------------------|
--2----------------|--L----------------|--0----------------------|
--0----------------|--L----------------|-------------------------|
-------------------|-------------------|-------------------------|


     
-----------0--L----------|------------------------|-------------------------|
--------0-----------0----|-----------3------------|--------3-----------2----|
--------2--------2-------|--------0---------------|-------------------------|
-----2-----------2-------|-----0------------------|-----4-----4-----2-------|
--0----------------------|-------------------0----|--2-----------0----------|
-------------------------|--3-----------3---------|-------------------------|


    
-----------2--2--2--0----|-----------0--------0----|-------------------------
--------3-----3--3--3----|--------0-----0----------|-----------3--------2----
-----2-------------------|--------2--------2-------|--------4----------------
--0----------------------|-----2-----------2-------|-----4-----------2-------
-------------------------|--0----------------------|--2-----------0----------
-------------------------|-------------------------|-------------------------


     
-------------------------|-------------0-----------|------------------------|
-----------3--L----------|----------------0--------|--------0----------2----|
--------0----------------|----------0--------0-----|------------------------|
-----0-------------------|-------2--------------2--|-----0----------2-------|
-------------------------|-------------------------|-------------0----------|
--3--------------3--2----|--0----------------------|--3---------------------|


    
----------10p--9-------------|-----------------------|-------------2---------
------------------10---------|-------------3----2----|--3-------------3------
----------------------9S--6--|--7~---------2----2----|--4-------4--------4---
--0--------------------------|--------0--------------|-------4--------------
-----------------------------|-----------------------|--2--------------------
-----------------------------|-----------------------|-----------------------


-------------2-----------|-------------3-----------|-------------3-----------
----------------3--------|----------------3--------|----------------3--------
----------4--------4-----|----------5--------5-----|----------5--------5-----
-------4--------------4--|-------5--------------5--|-------5--------------5--
--2----------------------|--3----------------------|--3----------------------
-------------------------|-------------------------|-------------------------


    
-------------2-----------|-------------2-----------|-------------3-----------
----------------3--------|----------------3--------|----------------3--------
----------4--------4-----|----------4--------4-----|----------5--------5-----
-------4--------------4--|-------4--------------4--|-------5--------------5--
--2----------------------|--2----------------------|--3----------------------
-------------------------|-------------------------|-------------------------


     
----------2--------L--|-------------------------|-----------2-----------2--|
----------3--------L--|----------------0--------|--------------3-----------|
----------------------|----------2-----------2--|--------4-----------4-----|
-------2--------------|-------2-----------2-----|-----4-----------4--------|
--0-------------------|--0----------0-----------|--2-----------------------|
----------------------|-------------------------|--------------------------|


       
-----------2-------------|-----------------------|-----------------------|
--------------3----------|----------3------------|-------------0---------|
--------4--------4-------|-------0---------------|----------2-------2----|
-----4--------------4----|-------------0---------|-------2---------------|
--2----------------------|------------------2----|--0--------------------|
-------------------------|--3--------------------|-----------------------|


       
--------------2-----------|------------------------|-------------------------
-----------3--------3-----|--------3----------2----|-----------3--L----------
--------4--------------4--|------------------------|--------0--------0-------
-----4-----------4--------|-----4----------2-------|-----0-------------------
--2-----------------------|--2----------0----------|--------------------2----
--------------------------|------------------------|--3----------------------


      
-----------0-------------|--------2----------0----|-------------------------|
-----------------0-------|-----3----------2-------|-----------3-------------|
--------0-----2----------|--2----------2----------|--------0----------------|
-----2-------------------|--0----------2----------|-----0--------0----------|
--0----------------------|--0----------0----------|-------------------------|
-------------------------|------------------------|--3--------------3--2----|


                  
-----------------0-------|--------------------------|-------------------|
--------------0----------|--------0----------2h--3--|-------------------|
-----------0-------------|-----0-------------2------|-------------------|
--------2-----------2----|--------------------------|-------------------|
-----2-------------------|--------------0-----------|--0----------------|
--0----------------------|--3--------3--------------|-------------------|


     
-------------------|--2----L----2--2--0----|----------0------------|
-------------------|--3----L----3--3--3----|-------0----------0----|
-------------------|--2----L---------------|-------2-------2-------|
-------------------|-------0---------------|---------------2-------|
-------------------|-----------------------|--0--------------------|
-------------------|-----------------------|-----------------------|


       
-----------------------|-------------------------|-----------2--2--2--0----|
----------3------------|--------3-----------2----|--------3-----3--3--3----|
-------0---------------|-------------------------|-----2-------------------|
-------0---------------|-----4-----4-----2-------|--0----------------------|
------------------0----|--2-----------0----------|-------------------------|
--3------------3-------|-------------------------|-------------------------|


       
-----------0------------|-------------------------|------------------------|
--------0----------0----|-----------3--------2----|-----------3------------|
--------2-------2-------|--------4----------------|--------0---------------|
-----2----------2-------|-----4-----------2-------|-----0------------------|
--0---------------------|--2-----------0----------|------------------------|
------------------------|-------------------------|--3-------------3--2----|


       
-------------0-----------|------------------------|-----------2--2--2--0----|
----------------0--------|--------0----------2----|--------3-----3--3--3----|
----------0--------0-----|------------------------|-----2-------------------|
-------2--------------2--|-----0----------2-------|--0----------------------|
-------------------------|-------------0----------|-------------------------|
--0----------------------|--3---------------------|-------------------------|


       
----------0------------|------------------------|-------------------------|
-------0----------0----|-----------3------------|--------3-----------2----|
-------2-------2-------|--------0---------------|-------------------------|
---------------2-------|-----0------------------|-----4-----4-----2-------|
--0--------------------|-------------------0----|--2-----------0----------|
-----------------------|--3-----------3---------|-------------------------|


      
-----------2--2--2--0----|----------0------------|-------------------------|
--------3-----3--3--3----|-------0----------0----|-----------3--------2----|
-----2-------------------|-------2-------2-------|--------4----------------|
--0----------------------|---------------2-------|-----4-----------2-------|
-------------------------|--0--------------------|--2-----------0----------|
-------------------------|-----------------------|-------------------------|


     
------------------------|-------------0-----------|------------------------|
-----------3------------|----------------0--------|--------0----------2----|
--------0---------------|----------0--------0-----|------------------------|
-----0------------------|-------2--------------2--|-----0----------2-------|
------------------------|-------------------------|-------------0----------|
--3-------------3--2----|--0----------------------|--3---------------------|


            
-------------------------|------------10p--9-------------|
--------0-----------2----|--------------------10---------|
-----------0-------------|------------------------9S--6--|
-----0-----------2-------|-------<>7---------------------|
--------------0----------|--5----------------------------|
--3----------------------|-------------------------------|


             
-----------------------||
------------<>7--------||
--7---------<>7--------||
-------0---------------||
-----------------------||
-----------------------||







adlib:

 

                
-------------------|-------------------|--14----------------|
-------------------|-------------------|--15----------------|
-------------------|-------------------|--------------------|
-------------------|-------------------|--------------------|
-------------------|-------------------|--------------------|
-------------------|-------------------|--------------------|


                
--14----------------|--15----------------|--15----------------|
--15----------------|--15----------------|--15----------------|
--------------------|--------------------|--------------------|
--------------------|--------------------|--------------------|
--------------------|--------------------|--------------------|
--------------------|--------------------|--------------------|


                
--14----------------|--14----------------|--15----------------|
--15----------------|--15----------------|--15----------------|
--------------------|--------------------|--------------------|
--------------------|--------------------|--------------------|
--------------------|--------------------|--------------------|
--------------------|--------------------|--------------------|


-------------------------|--7----7----7---5~----7----7-|----5------------L-
--------------7h-8-7-----|--8----8----8-8-7~----8----8-|--8-7------------L---
--------------7--L-L---9-|-----------------------------|---------------------
-------------------------|-----------------------------|---------------------
-------------------------|-----------------------------|---------------------
-------------------------|-----------------------------|---------------------


                 
--5h-7p-5--2--3--5----7---9--|--10~----------------|
--7--------3--5--7----8--10--|--12~----------------|
-----------------------------|---------------------|
-----------------------------|---------------------|
-----------------------------|---------------------|
-----------------------------|---------------------|


          
---9h-10S--12--10h-12-14--12-14-15--14--12--|--10--12--14--10~---L~--------|
--10------/14--12-----15--14-15-17--15--14--|--12--14--15--12~---L~--------|
--------------------------------------------|------------------------------|
--------------------------------------------|------------------------------|
--------------------------------------------|------------------------------|
--------------------------------------------|------------------------------|


                  
--10h-12p-10----9h-10p-9---5h-7p-5-----------|--------------------|
--12-----------10----------7-----------------|--------------------|
------------------------------------------2--|--4~----------------|
-------------------------------------2S-5----|--------------------|
---------------------------------------------|--------------------|
---------------------------------------------|--------------------|


 
-------------------------------------|--------------------------|
--2h-3p-2p-0-------------------------|-----------------------2--|
-------------2----0---------0----0---|-----------------2--4-----|
-----------------------4-----------2-|--4~--------4h-5----------|
-------------------------------------|--------------------------|
-------------------------------------|--------------------------|


   
--------------------|---------------------------|---------------------------|
--3~----------------|-----8p--7-----10-------8--|--7-----10-------8p--7-----|
--------------------|------------9--------------|-----9------------------9--|
--------------------|---------------------------|---------------------------|
--------------------|---------------------------|---------------------------|
--------------------|---------------------------|---------------------------|


    
--10------10p--9------------|--------------------------7--9-|
----------10------10--------|-------------------7-8-10-9-10-|
-------------------9--9--6--|--7----------6-7-9-7-9-11------|
----------------------9--7--|--7----0--L--7-9-6-------------|
----------------------------|-------------------------------|
----------------------------|-------------------------------|


              
--10----------------|-------------------|-------------------|
--10----------------|-------------------|-------------------|
--------------------|-------------------|-------------------|
--------------------|-------------------|-------------------|
--------------------|-------------------|-------------------|
--------------------|-------------------|-------------------|


Tab Legend
----------------
<>- harmonics
L - tied note
h - hammer on
p - pull off
S - shift slide
s - legato slide
/ -  slide into from below or out of upwards
\ -  slide into from above or out of downwards





Comments


Popular Harem Scarem tabs & chords
Hard To Love Chords
Something To Say 1 Chords
Honestly (Acoustic) Tabs
Honestly (Acoustic) 2 Tabs
Honestly 1 Tabs
Honestly 4 Tabs
Something To Say Tabs
Something To Say 3 Tabs
Something To Say Intro Tabs
Hard To Love Ukulele


Song lyrics



↑ Back to top | Tablatures and chords are parodies/interpretations of the original songs. You may use it for private study, scholarship, research or language learning purposes only
© 2014 AZChords.com Contact us | Privacy policy | DMCA | Add/correct tabs | Request tabs | Top 50 tabs