» » »

Mandy Tabs (ver.1)

Artists:  A B C D E F G H I J K L M N O P Q R S T U V W X Y Z # 

Mandy Tabs (ver.1)

Harem Scarem
Rating:
0/5 (0 votes)

Tabs too difficult? Try these video lessons and learn fast.
                E------------------------------------------------------------------------------|
B------------------------------------------------------------------------------|
G------------------------------------------------------------------------------|
D--------------------2-4--4^6^4^6----------2p1h2--1----------------------------|
A---(Volume Swell)-4-----------------------------------------------------------|
E--------------------------------------------------------------------------/4--|
                    A.H.
E------------------------------------------------------------------------------|
B--------5----------<5>---------10^12^10-9~~~~-------9-10--10^12----10-9-------|
G------4---6--------------------------------------------------------------11---|
D--4/6-------------------------------------------------------------------------|
A------------------------------------------------------------------------------|
E------------------------------------------------------------------------------|

E---------------------11--11^12^11^12~~~-----11^12^11^12p9----9----------------|
B----------------------------------------------------------12---12^14~~~-------|
G--13p11p9/8~~-6/8~~-----------------------------------------------------------|
D------------------------------------------------------------------------------|
A------------------------------------------------------------------------------|
E------------------------------------------------------------------------------|

E------------------------------------------------------------------------------|
B------------------------------------------------------3/5------3/7------3/9---|
G-------------------------4--------4---2h4p2/1~~~--1p2------1p2------1p2-------|
D--4/6-4/6----------4p2h4------------------------------------------------------|
A---------------------------2--------------------------------------------------|
E------------------------------------------------------------------------------|
      A.H.                                                              A.H.
E------------------------------------------------------------------------------|
B---x-<9>^10----------------------------------10/12-10--9h10p9------<12>--10-9-|
G------------\9---9/11------9------9/11-------------------------11-------------|
D-----------------------7/9----9-9-------9-9-----------------------------------|
A------------------------------------------------------------------------------|
E------------------------------------------------------------------------------|

E-----------------------------------------------------------------7------------|
B----------------------------------10-12~~---10--9h10p9\7-----7^9----9\7p5-5---|
G---9/11\9----------------9-11-13----------------------------------------------|
D-----------9-----9-11-13------------------------------------------------------|
A------------------------------------------------------------------------------|
E------------------------------------------------------------------------------|
                                                  O.H   O.H
E---------7-------------5-------------7---12\7p0--<5>---<19>---21--------------|
B-5-7-7/9----9\7-5--5/7---7\5--4---5-------------------------------17----------|
G------------------------------------------------------------------------------|
A------------------------------------------------------------------------------|
E------------------------------------------------------------------------------|
                       
E--11h12p11--------------------------------------------------------------------|
B------- ---12-----------------------------------------------------------------|
G---------  ---11\8p9------8-8h9p8---------------------------------------------|
D----------------------11-----------9---------------9--------------------------|
A---------------------------------------9\7h9--9/11---11\9--7------------------|
E---------------------------------------------------------------0-2-4--2h4p2p0-|

E--------------------------------------------------------------12--------------|
B------------------------------12-14/17~~---10^12--10~~--9h10------------------|
G----------------------9-11/13-------------------------------------11~~~-------|
D---------------6-9/11---------------------------------------------------------|
A---------4-7/9----------------------------------------------------------------|
E-0-/4-7-----------------------------------------------------------------------|

E-----------------------------------------------8h9p8h9h11--12---12-14-16------|
B-------------------------------------8h9p8h9------------------------------12~~|
G---11^13^11^13^11-----------8h9p8h9-------------------------------------------|
D--- ---------------11p10h11---------------------------------------------------|
A------------------------------------------------------------------------------|
E------------------------------------------------------------------------------|

E--19-17-16---17-19-16-19----19----19------------------------------------------|
B-------------------------19----17----16~~-------------------10-12--10~~-------|
G----------------------------------------------------9-11-13-------------------|
D--------------------------------------------9-11-13---------------------------|
A------------------------------------------------------------------------------|
E------------------------------------------------------------------------------|

E----------------------16^17^16^17^16--19-17-16---------16---------------------|
B---9^10^9^10^9-----------------------------------17-19----17------------------|
G-----------------9------------------------------------------------------------|
D------------------------------------------------------------------------------|
A------------------------------------------------------------------------------|
E------------------------------------------------------------------------------|

E--14-17-16--12-16-14--11-14-12-11-9-------------------------------------------|
B------------------------------------12-10-9-----------------------------------|
G----------------------------------------------11-9-11--11^13^11p9-------------|
D--------------------------------------------------------------------11~~------|
A------------------------------------------------------------------------------|
E------------------------------------------------------------------------------|

E-----------------------------------------------------------9/12p0------------||
B----------------10p9-----------9h10p9------------------------------17~~~-----||
G--11^13---11~~--------9~~~~~~-----------9-------------7/9--------------------||
D-------------------------------------------9\7\6--7--------------------------||
A-----------------------------------------------------------------------------||
E-----------------------------------------------------------------------------||
            
Tabs too difficult? Try these video lessons and learn fast.


comments powered by Disqus
↑ Back to top | Tablatures and chords are parodies/interpretations of the original songs. You may use it for private study, scholarship, research or language learning purposes only