» » »

Wogfood Bass tabs (ver.1)

Artists:  A B C D E F G H I J K L M N O P Q R S T U V W X Y Z # 

Wogfood Bass tabs (ver.1)

Hard-ons
Rating:
0/5 (0 votes)
Tabs too difficult? Try these video lessons and learn fast.
                Hard-ons - Wogfood

These are just root notes, I'm sure Ray plays much more complicated basslines but they 
are hard to make out through the recordings.


first note is a G note

verse/chorus
G|-------------------------------------------------------|
D|-------------------------------------------------------|
A|-----------------3-3-3-3-3-3-3-3-----------------------|
E|-3-3-3-3-3-3-3-3---------------------------------------|

bridge
G|-------------------------------------------------------|
D|-------------------------------------------------------|
A|-3-3-3-3-5-5-5-5-2-2-2-2-3-3-3-3-----------------------| x 2
E|-------------------------------------------------------|

G|-------------------------------------------------------|
D|-------------------------------------------------------|
A|-3-3-3-3-5-5-5-5-2-2-2-2-7-7-7-7-----------------------|
E|-------------------------------------------------------|

G|-------------------------------------------------------|
D|-------------------------------------------------------|
A|-3-3-3-3-3-3-3-3-5-5-5-5-5-5-5-5-----------------------|
E|-------------------------------------------------------|
            
Tabs too difficult? Try these video lessons and learn fast.


comments powered by Disqus
↑ Back to top | Tablatures and chords are parodies/interpretations of the original songs. You may use it for private study, scholarship, research or language learning purposes only