» » »

Hard-ons, There Goes One Of The Creeps That Hassled My Girlfriend Tabs (ver.1)

Artists:  A B C D E F G H I J K L M N O P Q R S T U V W X Y Z # 

There Goes One Of The Creeps That Hassled My Girlfriend Tabs (ver.1)

Hard-ons Tabs
 Rating:
4.2/5 (5 votes)
There Goes One Of The Creeps That Hassled My Girlfriend lessons Tabs too difficult? Try these video lessons and learn fast
                Artist - Hard-Ons
Song - There Goes One Of The Creeps That Hassled My Girlfriend.


|--------------|
|--------------|
|--------------|
|--5-5-5--2-2--|
|--5-5-5--2-2--| 0.00 - 0.10
|--3-3-3--0-0--|

|------------------------------|
|------------------------------|
|------------------------------|
|----7-7-7--10-10-10-----------|
|----7-7-7--10-10-10-----------| 0.10 - 0.15
|----5-5-5--8--8--8------------|

|-----------------------------------|
|-----------------------------------|
|-------5-5-5-----------------------|
|-5-5-5-5-5-5--7-7-7--10-10-10------| 0.15 - 0.35
|-5-5-5-3-3-3--7-7-7--10-10-10------|
|-3-3-3--------5-5-5--8--8--8-------|

|--------------|
|--------------|
|--------------|
|--5-5-5--2-2--|
|--5-5-5--2-2--| 0.35 - 0.45
|--3-3-3--0-0--|

|------------------------------|
|------------------------------|
|------------------------------|
|----7-7-7--10-10-10-----------|
|----7-7-7--10-10-10-----------| 0.45 - 0.50
|----5-5-5--8--8--8------------|

|-----------------------------------|
|-----------------------------------|
|-------5-5-5-----------------------|
|-5-5-5-5-5-5--7-7-7--10-10-10------| 0.50 - 1.10
|-5-5-5-3-3-3--7-7-7--10-10-10------|
|-3-3-3--------5-5-5--8--8--8-------|

|--------------|
|--------------|
|--------------|
|--5-5-5--2-2--|
|--5-5-5--2-2--| 1.10 - 1.20
|--3-3-3--0-0--|
|------------------------------|
|------------------------------|
|------------------------------|
|----7-7-7--10-10-10-----------|
|----7-7-7--10-10-10-----------| 1.20 - 1.26
|----5-5-5--8--8--8------------|

|-----------------|
|-----------------|
|-----------------| 1.26 - 1.50
|------3~------3~-|
|-3~-------5~-----|

ending.

|-------------|
|-------------|
|-------------| 
|-------------|
|-3~----------|
            
Submit corrections

comments powered by Disqus
↑ Back to top | Hard-ons Tabs for There Goes One Of The Creeps That Hassled My Girlfriend. Lyrics for acoustic guitar and electric guitar. Tablatures and chords are parodies/interpretations of the original songs. You may use it for private study, scholarship, research or language learning purposes only