>
 >
Takin' Me Down

Takin' Me Down Bass Tabs

Hardline - Takin' Me Down chords, tabs, tablatures, lyrics

Guitar lessons | Add/correct | Request | Top 50 tabs Artists:  A B C D E F G H I J K L M N O P Q R S T U V W X Y Z 0-9

Takin' Me Down Bass Tabs – Hardline

CD, Sheet music, Poster

Do you like Takin' Me Down? Share with your friends now
Bass TabsTabs
-------------------------------------------------------------------------------
-------------------------------------------------------------------------------


Tuning: Standard




     W                   H        S S S S Q        W                   H        Q     
G||-------------------|-------------------------|-------------------|----------------|
D||-------------------|-------------------------|-------------------|----------------|
A||-------------------|-------------------------|-------------------|----------------|
E||-------------------|-------------0-3-0-3\----|-------------------|----------------|


  W                   E  E  E  E  E  E  E  E     E  E  E  E  E  E  E  E   
-------------------|--------------------------|--------------------------|
-------------------|--------------------------|--------------------------|
-------------------|--------------------------|--------------------------|
-------------------|--0--0--0--0--0--0--0--0--|--0--0--0--0--0--0--0--0--|


  E  E  E  E  E  E  E  S S    E  S S E  S S S S E     S S E  Q    H           W                 
---------------------------|-----------------------|-----------------------|-------------------|
-------------------------5-|--L--------------------|-----------------------|-------------------|
---------------------------|-----7-5-7--5----------|-----------------------|-------------------|
--0--0--0--0--0--0--0--0---|--------------7-6-5-3--|--0-0------------------|-------------------|


  S S E  Q    H           H        Q     Q        E  E  E  E  E  E  E  E   
-----------------------|-----------------------|--------------------------|
-----------------------|-----------------------|--------------------------|
-----------------------|-----------------------|--------------------------|
--0-0------------------|----------------12\----|--0--0--0--0--0--0--0--0--|


  E  E  E  E  E  E  E  E     S S E  Q    H           H        Q    S S E      S S E  Q    H         
--------------------------|-----------------------|------------------------|-----------------------|
--------------------------|-----------------------|------------------------|-----------------------|
--------------------------|-----------------------|------------------------|-----------------------|
--0--0--0--0--0--0--0--0--|--0-0------------------|------------------0-3/--|--0-0------------------|


  H        Q     Q        E  E  E  E  E  E  E  S S    E  E  E  E  E  E  E  S S  
-----------------------|---------------------------|---------------------------|
-----------------------|---------------------------|---------------------------|
-----------------------|---------------------------|--2--2--2--2--2--2--2--2-0-|
----------------12\----|--5--5--5--5--5--5--5--3-5-|---------------------------|


  E  E  E  E  E  E  E  S S    E  E  E  E  E  S S  Q        E  E  E  E  E  E  E  E   
---------------------------|----------------------------|--------------------------|
---------------------------|----------------------------|--------------------------|
---------------------------|--0--0--0--0--0--0-3s-7\----|--------------------------|
--3--3--3--3--3--3--3--3-0-|----------------------------|--0--0--0--0--0--0--0--0--|


  E  E  E  E  Q    Q       E  E  E  E  E  E  E  E     Q    Q    Q    Q       S S E  Q    H         
------------------------|--------------------------|----------------------|-----------------------|
------------------------|--------------------------|----------------------|-----------------------|
------------------------|--------------------------|--5-------------------|-----------------------|
--0--0--0--0--3----5----|--0--0--0--0--0--0--0--0--|-------5----3----5----|--0-0------------------|


  W                   S S E  Q    H           H        Q     Q        E  E  E  E  E  E  E  E   
-------------------|-----------------------|-----------------------|--------------------------|
-------------------|-----------------------|-----------------------|--------------------------|
-------------------|-----------------------|-----------------------|--------------------------|
-------------------|--0-0------------------|----------------12\----|--0--0--0--0--0--0--0--0--|


  E  E  E  E  E  E  E  E     S E.   Q    H           H        Q    S S S S    S S E  Q    H         
--------------------------|-----------------------|------------------------|-----------------------|
--------------------------|-----------------------|------------------------|-----------------------|
--------------------------|--7-7\-----------------|------------------------|-----------------------|
--0--0--0--0--0--0--0--0--|-----------------------|------------------0-3-0-|--0-0------------------|


  H        Q     Q        E  E  E  E  E  E  E  S S    E  E  E  E  E  E  E  S S  
-----------------------|---------------------------|---------------------------|
-----------------------|---------------------------|---------------------------|
-----------------------|---------------------------|--2--2--2--2--2--2--5--0-2-|
----------------12\----|--5--5--5--5--5--5--5--3-5-|---------------------------|


  E  E  E  E  E  E  E  E     E  E  E  E  E  E  E  E     E  E  E  E  E  E  E  E   
--------------------------|--------------------------|--------------------------|
--------------5-----5-----|--------------------------|--------------------------|
--------------------------|--------------------------|--3--3--3--3--------------|
--3--3--3--3-----3-----3--|--5--5--5--5--5--5--5--5--|--------------3--3--3--3--|


  E  E  E  E  E  E  Q       E  E  E  E  E  E  S S E     E  E  E  E  E  E  E  E   
-------------------------|---------------------------|--------------------------|
-------------------------|---------------------------|--------------------------|
--------------------7----|--3--3--3--3---------------|--------------------------|
--5--5--3--0--0--5-------|--------------3--3--3-3-5--|--L--5--5--5--5--5--5--5--|


  E  E  E  E  E  E  E  E     E  E  E  E  E  E  Q       E  E  E  E  S S S  S S S E   
--------------------------|-------------------------|------------------------------|
--------------------------|-------------------------|------------------------------|
--3--3--3--3--------------|--------------------7----|--3--3--3--3--3-3-2h-3---3-5--|
--------------3--3--3--3--|--5--5--3--0--0--5-------|------------------------------|


  Q    E  E  S  S E  S S E     E  E  E  E  E  E  E  E     E  E  E  E  E  E   S S  S S  
----------------------------|--------------------------|------------------------------|
---------------------5------|--------------------------|------------------------------|
--L----5--5-------5----7-5--|--------------------------|--------------------10-7------|
-------------5h-7-----------|--0--0--0--0--0--0--0--0--|--0--0--0--0--0--0-------10-7-|


  E  E  E  E  E  E  S  S S  S    E  E  E  E  E  E  S  S S  S    E  E  E  E  E  E  E  E   
------------------------------|------------------------------|--------------------------|
------------------------------|------------------------------|--------------------------|
-------------------------5h-7-|--5--5--5--5-------------5h-7-|--------------------------|
--0--0--0--0--0--0--5h-7------|--------------5--5--5h-7------|--0--0--0--0--0--0--0--0--|


  E  E  E  E  E  E   S S  S S    E  E  E  E  E  E  S  S S  S    E  E  E  E   
------------------------------|------------------------------|--------------|
------------------------------|------------------------------|--------------|
--------------------10-7------|-------------------------5h-7-|--5--5--5--5--|
--0--0--0--0--0--0-------10-7-|--0--0--0--0--0--0--5h-7------|--------------|


  E  E  E  E  E  E  E  S S    E  E  E  E  E  E  Q        E  E  E  E  E  E  E  E   
---------------------------|--------------------------|--------------------------|
---------------------------|--------------------------|--------------5-----5-----|
---------------------------|--2--2--2--2--2--2--9\----|--------------------------|
--5--5--5--5--5--5--5--3-5-|--------------------------|--3--3--3--3-----3-----3--|


  E  E  E  E  E  E  E  E     E  E  E  E  E  E  E  E     E  E  E  E  E  E  Q     
--------------------------|--------------------------|-------------------------|
--------------------------|--------------------------|-------------------------|
--------------------------|--3--3--3--3--------------|--------------------7----|
--5--5--5--5--5--5--5--5--|--------------3--3--3--3--|--5--5--3--0--L--0-------|


  E  E  E  E  E  E  S S E     E  E  E  E  E  E  E  E     E  E  E  E  E  E  E  E   
---------------------------|--------------------------|--------------------------|
---------------------------|--------------------------|--------------------------|
--3--3--3--3---------------|--------------------------|--3--3--3--3--------------|
--------------3--3--3-3-5--|--L--5--5--5--5--5--5--5--|--------------3--3--3--3--|


  E  E  E  E  E  E  Q       E  E  E  E  E  E  E  E     E  E  E  E  E  E  E  E   
-------------------------|--------------------------|--------------------------|
-------------------------|--------------------------|--------------------------|
--------------------7----|--------------------------|--------------------------|
--5--5--3--0--0--5-------|--5--5--5--5--5--5--5--5--|--7--7--7--7--7--7--7--7--|


  E  E  E  E  E  E  E  E     E  E  E  E  E  E  Q       E  E  E  E  E  E  S S E   
--------------------------|-------------------------|---------------------------|
--------------------------|-------------------------|---------------------------|
--3--3--3--3--------------|--------------------7----|--3--3--3--3---------------|
--------------3--3--3--3--|--5--5--3--0--0--5-------|--------------3--3--3-3-5--|


  E  E  E  E  E  E  E  E     E  E  E  E  E  E  E  E     E  E  E  E  E  E  Q     
--------------------------|--------------------------|-------------------------|
--------------------------|--------------------------|-------------------------|
--------------------------|--3--3--3--3--------------|--------------------7----|
--L--5--5--5--5--5--5--5--|--------------3--3--3--3--|--5--5--3--0--0--5-------|


  E  E  E  E  E  E  E  E     E  S S  S  E.  S E  S S S S S    E  E  E  E  E  E  E  E   
--------------------------|--------------------------------|--------------------------|
--------------------------|--------------------------------|--------------------------|
--------------------------|---------12-12------------------|--------------------------|
--5--5--5--5--5--5--5--5--|--7--7-7---------7-7--7-7-7-7-7-|--0--0--0--0--0--0--0--0--|


  E  E  E  E  Q    Q       E  E  E  E  E  E  E  E     Q    Q    Q    Q     
------------------------|--------------------------|----------------------|
------------------------|--------------------------|----------------------|
------------------------|--------------------------|--5-------------------|
--0--0--0--0--3----5----|--0--0--0--0--0--0--0--0--|-------5----3----5----|


  E  E  E  E  E  E  E  E     E  E  E  E  Q    Q       E  E  E  E  E  E  E  E   
--------------------------|------------------------|--------------------------|
--------------------------|------------------------|--------------------------|
--------------------------|------------------------|--------------------------|
--0--0--0--0--0--0--0--0--|--0--0--0--0--3----5----|--0--0--0--0--0--0--0--0--|


                                           
  E  E  E  E  Q    Q       S S E  Q    H                                          
------------------------|-------------------------------------------------------||
------------------------|-------------------------------------------------------||
------------------------|-------------------------------------------------------||
--0--0--0--0--3---------|--0-0--------------------------------------------------||




Duration Legend
---------------
W - whole
H - half
Q - quarter
E - 8th
S - 16th
T - 32nd
X - 64th
. - note dotted
|-n-|  - n-tuplets


Tablature Legend
----------------
L - tied note
x - dead note
g - grace note
(n) - ghost note
> - accentuded note
NH - natural harmonic
AH - artificial harmonic
TH - tapped harmonic
SH - semi harmonic
PH - pitch harmonic
h - hammer on
p - pull off
b - bend
br - bendRelease
pb - preBend
pbr - preBendRelease
brb - bendReleaseBend
\n/ - tremolo bar dip
\n - tremolo bar dive
-/n - tremolo bar Release up
/n\ - tremolo bar inverted dip
/n - tremolo bar return
-\n - tremolo bar Release down
S - shift slide
s - legato slide
/ -  slide into from below or out of upwards
\ -  slide into from above or out of downwards
~ - vibrato
W - wide vibrato
tr - trill
TP - tremolo picking
T - tapping
S - slap
P - pop
< - fade in
^ - brush up
v - brush down





Comments


Popular Hardline tabs & chords
In The Hands Of Time Chords
Hey Girl Tabs
Hot Cherie Tabs
Hotcherie Tabs
Hotcherie Intro Tabs
In The Hands Of Time Tabs
Takin' Me Down Tabs
Weight Tabs
Weight Intro Tabs
In The Hands Of Time Ukulele


Song lyrics



↑ Back to top | Tablatures and chords are parodies/interpretations of the original songs. You may use it for private study, scholarship, research or language learning purposes only
© 2014 AZChords.com Contact us | Privacy policy | DMCA | Add/correct tabs | Request tabs | Top 50 tabs