» » »

Hardline, In The Hands Of Time Tabs (ver.1)

Artists:  A B C D E F G H I J K L M N O P Q R S T U V W X Y Z # 

In The Hands Of Time Tabs (ver.1)

Hardline Tabs
 Rating:
4/5 (4 votes)
In The Hands Of Time lessons Tabs too difficult? Try these video lessons and learn fast
1
                Song : In The Hands of Time
Artist :hardline 
 tuning :standard 
any corrections or suggestion are welcome .

Intro : 2 times .

E||--------------------------|--------------------------|
B||--------1--------1--------|-----1--------1-----------|
G||-----------3--------3-----|--------3--------3--------|
D||-----3--------3-----------|--3--------3-----------3--|
A||--1--------------------0--|--------------------------|
E||--------------------------|--------------------3-----|

                                 
--------------------------|-----------------|
--1--------1-----------1--|-------1---------|
-----3--------3-----------|-3-------3-------|
--------3-----------3-----|----3------------|
-----------------3--------|-----------------|
--------------------------|-----------------|

2 nd times end with chord :
                                 
----------|
-----1----|
-----3----|
-----3----|
-----3----|
----------|
Second intro with classic guitar solo :same as above .

Verse :
Same as Intro then :
E||-----------1------------|-----------1------------|-----------1------------|
B||--------3-------3-------|--------1-------1-------|--------1-------1-------|
G||-----2-------------2----|-----3-------------3----|-----2-------------2----|
D||--0---------------------|------------------------|------------------------|
A||------------------------|--1---------------------|--3---------------------|
E||------------------------|------------------------|------------------------|                          
-----------0------------||
--------1-------1-------||
-----0-------------0----||
------------------------||
--3---------------------||
------------------------||

Prechorus : 3 times 
Day after day --.G5        A #5                         C5
E||-------------------|-------------------|-------------------||
B||-------------------|-------------------|-------------------||
G||-------------------|--3----------------|--5----------------||
D||--5----------------|--3----------------|--5----------------||
A||--5----------------|--1----------------|--3----------------||
E||--3----------------|-------------------|-------------------||


E----------------------------------------------||
B----6--5-------6--5---------------------------||
G-----------5----------5---3-------------------||
D-------------------------------5--3-----------||
A----------------------------------------------||
E----------------------------------------------||

Chorus :
       G5          A#5                                   C5
E||----------------------|----------------------|---------------------|
B||----------------------|----------------------|---------------------|
G||----------------------|----3-----------------|--------5------------|
D||--5-----------5-------|----3-----------3-----|--3-----5------------|
A||--5--------5----------|----1--------5-----5--|-----5--3------------|
E||--3-------------------|----------------------|---------------------|


                              F5                        
--------------------|-------------------|----------------||
--------------------|-------------------|----------------||
---------------3----|-------------------|-------5--------||
--5------------3----|----3-----3----3---|-3-----5--------||
--5------------1----|-1--------3--5---5-|----5--3--------||
--3-----------------|----------1--------|----------------||

Solo :

Prechorus :

Chorus :

Outro : same as intro + classic guitar solo .
            
Submit corrections

comments powered by Disqus
↑ Back to top | Hardline Tabs for In The Hands Of Time. Lyrics for acoustic guitar and electric guitar. 1 Tablatures and chords are parodies/interpretations of the original songs. You may use it for private study, scholarship, research or language learning purposes only