>
 >
31-91 1

31-91 1 Guitar Tabs

Hardline - 31-91 1 chords, tabs, tablatures, lyrics

Guitar lessons | Add/correct | Request | Top 50 tabs Artists:  A B C D E F G H I J K L M N O P Q R S T U V W X Y Z 0-9

31-91 1 Guitar Tabs – Hardline

CD, Sheet music, Poster

Do you like 31-91 1? Share with your friends now
TabsTabs v2
-------------------------------------------------------------------------------
                             31-91 - Hardline
-------------------------------------------------------------------------------


Tuning: Standard



        |--3--|                                |--3--|                             
      S T  T  T S S S S S S S E  S S E  S    S T  T  T S S S S S S S E  S S S S S  
E||-----------------3---------------------|----------------3---------0--0-L-1-0---|
B||---1-0h-1p-0---1---1-----0-1--0-L------|--1-0h-1p-0---1---1-----3--------------|
G||*------------2-------2------------2----|------------2-------2------------------|
D||*--------------------------------------|---------------------------------0-----|
A||---0-------------L-------------------0-|--L-------------L-----2-L-3--3-L---3-0-|
E||-----------------------3-L----1-L------|---------------------------------------|


    |--3--|                                                                                        
  S T  T  T S S S S S S S E  S S E  S    S E  S S S S S H             S E  S S S S S E.  S S S E   
----------------3---------------------|---------------------------||------------------------------|
--1-0h-1p-0---1---1-----0-1--0-L------|--8-8--6-L-5-L-3-L---------||--8-8--6-L-5-L-3-L-----3---5--|
------------2-------2------------2----|--------------------------*||------------------------------|
--------------------------------------|-------7-L-5-L-5-L--------*||-------7-L-5-L-5-L---5-L-5----|
--L-------------L---------------------|--7-7----------------------||--7-7-------------------------|
----------------------3-L----1-L----0-|---------------------------||------------------------------|


  E.  S S E  S S S S S E  E     E  S S S E  S S S S S E  E     E  S S S E  S Q    S S S S  
--1---0-L----0-L----------0--|------------------------------|-----------5--5-L----L-5-5-5-|
----------3------1-----3-----|--6----5-L----3-L----------3--|--6----8-L-------------5-5-5-|
-------------------2---------|-----------7------4-----5-----|-----------------------5-5-5-|
--0-----L--------------------|--------------------5---------|-----------------------------|
-------------0-L-----0-L-----|--5--5---L--------------------|--5--5---L-------------------|
-----------------------------|--------------3-L-----3-L-----|--------------5-L----L-5-5-5-|


                              |--3--|                            
  E  S S E.  S  H           S T  T  T S S S S S S S E  S S E  S  
--5--3-3-L---------------|----------------3---------------------|
--5--3-3-L---1p-0--------|--1-0h-1p-0---1---1-----0-1--0-L------|
--5----------------------|------------2-------2------------2----|
-------------2p-0--------|--------------------------------------|
-------------------------|--0-------------L-------------------0-|
--5--3-3-L---------------|----------------------3-L----1-L------|


    |--3--|                                 |--3--|                            
  S T  T  T S S S S S S S E  S S S S S    S T  T  T S S S S S S S E  S S E  S  
----------------3---------0--0-L-1-0---|----------------3---------------------|
--1-0h-1p-0---1---1-----3--------------|--1-0h-1p-0---1---1-----0-1--0-L------|
------------2-------2------------------|------------2-------2------------2----|
---------------------------------0-----|--------------------------------------|
--L-------------L-----2-L-3--3-L---3-0-|--L-------------L---------------------|
---------------------------------------|----------------------3-L----1-L----0-|


  S E  S S S S S E.  S S S E     E.  S S E  S E  S S S E   S     E.  S S  E   S  E   S  S  S  E.   
------------------------------|----------8---------8-L-------|-------8-L---------------------10---|
--8-8--6-L-5-L-3-L-----3---5--|--6---8-L----8-L--------8--10-|--10-------10--12--L-----13--L------|
------------------------------|------------------------------|------------------------------------|
-------7-L-5-L-5-L---5-L-5----|------------------------------|------------------------------------|
--7-7-------------------------|--5-----L----7-L--7---L-------|---8-----L-----10--L--10-----L------|
------------------------------|------------------------------|------------------------------------|


  S E  S S E  S S S  S S S S E     S E  S S E  S S S  S S S S E     S E  S S E  S S E  S S S E   
--8-8--5-L----3-L------3-L------|--8-8--5-L----3-L------3-L------|--8-8--7-L----5-L----3-L------|
-----------6------3p-0-----3----|-----------6------3p-0-----3----|-----------8------6------3----|
-----------------------------4--|-----------------------------4--|---------------------------4--|
--7-7--3-L----2-L---------------|--7-7--3-L----2-L---------------|--7-7--5-L----3-L----2-L------|
--------------------------------|--------------------------------|------------------------------|
-----------------------3-L------|-----------------------3-L------|------------------------------|


                                                          ^                  
  S E  S S S S S Q    E.  S    Q    E.  S S S S S Q       W                  
----------------------------|-------------------0-5----|--5----------------||
--8-8--6-L-5-L-3-L----------|--3--------------3--------|--5----------------||
---------------2-L----------|--2------------2----------|--2----------------||
-------7-L-5-L-5-L----------|--4----------3------------|--2----------------||
--7-7----------0-L----L---0-|--L----L---0-L------------|--0----------------||
----------------------------|--------------------------|-------------------||




Duration Legend
---------------
W - whole
H - half
Q - quarter
E - 8th
S - 16th
T - 32nd
X - 64th
. - note dotted
|-n-|  - n-tuplets


Tablature Legend
----------------
L - tied note
x - dead note
g - grace note
(n) - ghost note
> - accentuded note
NH - natural harmonic
AH - artificial harmonic
TH - tapped harmonic
SH - semi harmonic
PH - pitch harmonic
h - hammer on
p - pull off
b - bend
br - bendRelease
pb - preBend
pbr - preBendRelease
brb - bendReleaseBend
\n/ - tremolo bar dip
\n - tremolo bar dive
-/n - tremolo bar Release up
/n\ - tremolo bar inverted dip
/n - tremolo bar return
-\n - tremolo bar Release down
S - shift slide
s - legato slide
/ -  slide into from below or out of upwards
\ -  slide into from above or out of downwards
~ - vibrato
W - wide vibrato
tr - trill
TP - tremolo picking
T - tapping
S - slap
P - pop
< - fade in
^ - brush up
v - brush down





Comments


Popular Hardline tabs & chords
Takin' Me Down Bass Tabs
In The Hands Of Time Chords
31-91 Tabs
Hotcherie Tabs
Hotcherie Intro Tabs
Takin' Me Down Tabs
Weight Tabs
Weight Intro Tabs
Cant Find My Way Ukulele
In The Hands Of Time Ukulele


Song lyrics



↑ Back to top | Tablatures and chords are parodies/interpretations of the original songs. You may use it for private study, scholarship, research or language learning purposes only
© 2014 AZChords.com Contact us | Privacy policy | DMCA | Add/correct tabs | Request tabs | Top 50 tabs