>
 >
Tonight

Tonight Guitar Tabs

Hard-Fi - Tonight chords, tabs, tablatures, lyrics

Guitar lessons | Add/correct | Request | Top 50 tabs Artists:  A B C D E F G H I J K L M N O P Q R S T U V W X Y Z 0-9

Tonight Guitar Tabs – Hard-Fi

CD, Sheet music, Poster

Do you like Tonight? Share with your friends now
ChordsTabsUkulele
My second tab - this taken from the live acoustic video performed at Air Studios 
(slightly different lyrics from the original). This is a version that can be 
played on acoustic, and is how I play and sing it.



      Bm      Dsus2   G       Bm
e|---------------------------------------| (x8)
b|----------------3----------------------|
G|--------4-----2---2-----0-------4------|
D|------4---4-0-------------0---4---4----|
A|----2-----------------2-----2----------|
E|--------------------3------------------|

      Bm
e|---------------------------------------| (<-- Play before pre-chorus)
b|---------------------------------------|
G|--------4-------4----------------------|
D|------4---4---4---4--------------------|
A|----2-------2--------------------------|
E|---------------------------------------|


Bm        Dsus2            G            Bm
Tonight, tonight I'm gonna make my move,
tonight, tonight I ain't got nothing to lose
And if I ever find a way right out of here,
Tonight, tonight I'm gonna disappear.

Tonight, tonight oh sweetheart you and I,
Tonight, tonight we've got to feel alive,
Cos if we ever find a way right out of here,
Tonight, tonight we've gotta disappear.

[BRIDGE:]

      A               G       Bm       D       F#      A (\/ Rpt 3 notes x4)
e|------------0---------3--------------2-2-----2-2-----0-0--------| 
b|------2-------2---2-----3------------3---3---2---2---2---2------|
G|--------2-------2---------0---4------2-----2-3-----3-2-----2----|
D|----------2-----------------4--------0-------4-------2----------|
A|----0---------------2-------2---2-4----------4-------0----------|
E|--------------------3------------------------2------------------|

             A               G  Bm
But it aint easy, no it aint easy
D        F#        A 
Darling darling please

[CHORUS:]     

      G         Bm         G         Bm   
e|----3-3---x-x-2-2---x-x--3-3---x-x-2-2------| (x2)
b|----3---3-x-x-3---3-x-x--3---3-x-x-3---3----|
G|----0-----x-x-4-----x-x--0-----x-x-4--------|
D|----0-----x-x-4-----x-x--0-----x-x-4--------|
A|----2-----x-x-2-----x-x--2-----x-x-2--------|
E|----3-----0-0-------0-0--3-----0-0----------|

      G         D          A            
e|----3-3---x-x-2-2---x-x--0-0-----0-----0----| 
b|----3---3-x-x-3---3-x-x--2---2-----2-----2--|
G|----0-----x-x-2-----x-x--2-----2-----2------|
D|----0-----x-x-0-----x-x--2------------------|
A|----2-----x-x-------x-x--0------------------|
E|----3-----0-0-------0-0---------------------|

               G   Bm
I aint got long,
               G   Bm
So I need you,
               G   D
To believe in me,
             A
Tonight, tonight

I can't lose you,
So come with me,
And we'll break free,
Tonight, tonight' we'll shine so bright

[VERSE:] (Strum chords)

Bm                Dsus2           G         Bm
Tonight these streets hold nothing more for me,
'Cept ghosts of sorrow, girls and memories
Now I've said goodbye to all that I hold dear
Tonight, tonight we've gotta disappear.

[BRIDGE:] (Strum chords)

             A               G  Bm
But it aint easy, no it aint easy
D        F#        A 
Darling darling please

[CHORUS:] (Strum chords)    

               G   Bm
I aint got long,
               G   Bm
So I need you,
               G   D
To believe in me,
             A
Tonight, tonight

I can't lose you,
So come with me,
And we'll break free,
Tonight, tonight' we'll shine so bright

[MIDDLE 8:]


e|---------------------------------------|
b|---------------------------------------|
G|---------------------------------------|
D|------11-12-11-9-----------------------|
A|----9------------12-9-10---------------|
E|-------------------------10-7~---------|

e|---------------------------------------|
b|---------------------------------------|
G|---------------------------------------|
D|------11-12-11-9------------9~---------|
A|----9------------12-9-10-12------------|
E|---------------------------------------| (rpt both x2)

Tonight, tonight out on that Great West Road
I'm scared like you but we can't let it show
Cos if we ever find a way right out of here
Tonight, tonight 

[SOLO:]

e|----7-7-7-7-9--9--9--9----9------------|
b|----7-7-7-7-10-10-10-10---10-----------|
G|----7-7-7-7-11-11-11-11---11-----------|
D|---------------------------------------|
A|---------------------------------------|
E|---------------------------------------|

e|----7-7-7-7-7-7-7-7----7---------------|
b|----8-8-8-8-7-7-7-7----7---------------|
G|----9-9-9-9-7-7-7-7----7---------------|
D|---------------------------------------|
A|---------------------------------------|
E|---------------------------------------| (rpt both x4 to end)





Comments


Popular Hard-Fi tabs & chords
Cash Machine Bass Tabs
Hard To Beat Bass Tabs
Living For The Weekend 1 Bass Tabs
I Shall Overcome Chords
Move On Now 1 Chords
Better Do Better Tabs
Better Do Better Intro Tabs
Living For The Weekend 1 Tabs
Tied Up Too Tight Intro 1 Tabs
I Shall Overcome Ukulele


Song lyrics



↑ Back to top | Tablatures and chords are parodies/interpretations of the original songs. You may use it for private study, scholarship, research or language learning purposes only
© 2014 AZChords.com Contact us | Privacy policy | DMCA | Add/correct tabs | Request tabs | Top 50 tabs