» » »

Living For The Weekend Bass tabs (ver.3)

Artists:  A B C D E F G H I J K L M N O P Q R S T U V W X Y Z # 

Living For The Weekend Bass tabs (ver.3)

Hard-Fi
Rating:
0/5 (0 votes)

Hard to play? Try these video lessons and learn fast.
                I learnt this by listening and improvising along till i thought i got it correct, bits 
not be correct but sound better than other versions i've seen & tried.

Tempo: 125-130

Intro:

G:|----||-------------------|------------|--------------|------------||
D:|----||-------5-5-5-3-----|-1----------|----3--5---10-|-5-5-5-3----||
A:|----||-----------------5-|----5--3--1-|-3------------|---------5--||x2
E:|----||--3--3-------------|------------|---------1----|------------||


Verse:
                  x2                 x3
G:|-----------------|-----8-8-8-6-----|---------------|
D:|-------5-5-5-3---|---------------8-|----3-3-3-1----|
A:|---------------5-|-6-6-------------|-------------3-|
E:|-3-3-------------|-----------------|-1-1-----------|

G:|-----------------|----------------||
D:|-----------------|----------------||
A:|-----------------|----------------||
E:|-3-3-3-3-3-3-3-3-|-3-3-3-3-3-3-3-3||


Pre Chorus: (volume pedal 3/4 open)

G:|------------|------------|---------------|---------------|--------------|
D:|------------|------------|-----5-5-5-3---|-----5-5-5-3---|--------------|
A:|-6--6--6--6-|-3--3--3--3-|-------------5-|-------------5-|-6--6--6--6---|
E:|------------|------------|-3-3-----------|-3-3-----------|--------------|

G:|-------------|---------------|------------||
D:|-------------|---------------|------------||
A:|-------------|-5--5--5--5--5-|-5--5--5--5-||
E:|-1--1--1--1--|---------------|------------||


Chorus:
                                                             x2
G:|---------------|------------|---5-3---------|-----------||
D:|-----5-5-5-3---|-1----------|------------10-|-5-5-5-3---||
A:|-------------5-|----5--3--1-|-3-------------|---------5-||
E:|-3-3-----------|------------|--------1------|-----------||

I've left out the breakdown: i couldn't make out much bass through my headphones but you 
always play the synth part?
Hope you enjoyed my tab and that it came in useful.
Peace out
            
Hard to play? Try these video lessons and learn fast. | Correct




comments powered by Disqus
↑ Back to top | Tablatures and chords are parodies/interpretations of the original songs. You may use it for private study, scholarship, research or language learning purposes only