» » »

Living For The Weekend Tabs (ver.2)

Artists:  A B C D E F G H I J K L M N O P Q R S T U V W X Y Z # 

Living For The Weekend Tabs (ver.2)

Hard-Fi
Rating:
3/5 (2 votes)

Hard to play? Try these video lessons and learn fast.
                Gr8 song, get back to me if u find anything wrong with the tab. Enjoy!

Main/chorus riff(there is some weird synth effect used here.)

e|-------------------------------------------------------------------------|
B|:------------------------------------------------------------------------|
G|--------12-12----10-10---------------------------------------------------|
D|-----------------------12----------12-12----10-10------------/12-10------|
A|:--10---------------------------------------------13---------------------|
E|--------------------------11----11-------------------8-----8-------------|
            1st time__________________  2nd time_________________
e|----------|--------------------------|-------------------------|
B|----------|-------------------------:|-------------------------|
G|----------|------12-12--10-10--------|-------12-12--10-10------|
D|----------|-------------------12-----|---------------------/12-|
A|-------10-|--10-------------------10:|----10-------------------|
E|--13------|--------------------------|-------------------------|

Sorry, but i havn't figured out the verse or the wee bit before the chorus.
Ill try and get that to u as soon as possible.
            
Hard to play? Try these video lessons and learn fast. | Correct




comments powered by Disqus
↑ Back to top | Tablatures and chords are parodies/interpretations of the original songs. You may use it for private study, scholarship, research or language learning purposes only