» » »

Living For The Weekend Chords (ver.2)

Artists:  A B C D E F G H I J K L M N O P Q R S T U V W X Y Z # 

Living For The Weekend Chords (ver.2)

Hard-Fi
Rating:
5/5 (1 vote)

Hard to play? Try these video lessons and learn fast.
                ----------------------------------------------------------------------------
                      Hard-Fi: Living For the Weekend
----------------------------------------------------------------------------

Tuning:Standard

I have noted there is only one chorded tab for this song, yet it is not 100% accurate.
here is the accurate version (in my opinion!).

Note, that there are two sets of chords, set 1 are pure strumming chords, where as set 2
more power based chords.  I have done this so that each set can be played by a seperate
for the full effect!(of course, only if you have someone to play with, if not, still 
great playing either version alone!)

CHORDS:

SET 1

   G or G    F     Eb    Cm    Dm

e|--3--3-----1-----x-----3-----5---------------------------------|
B|--3--3-----1-----6-----4-----6---------------------------------|
G|--0--4-----2-----8-----5-----7---------------------------------|
D|--0--5-----3-----8-----5-----7---------------------------------|
A|--2--5-----3-----6-----3-----5---------------------------------|
E|--3--3-----1-----6-----x-----5---------------------------------|

SET 2

    G     F     Eb    Cm    Dm

e|--x-----x-----x-----x-----x--------------------------------------------|
B|--x-----x-----x-----x-----x--------------------------------------------|
G|--x-----x-----8-----5-----7--------------------------------------------|
D|--5-----3-----8-----5-----7--------------------------------------------|
A|--5-----3-----6-----3-----5--------------------------------------------|
E|--3-----1-----x-----x-----x--------------------------------------------|

INTRO

G, Cm, F

VERSE

G                                 Eb

Oh, I've been working a week, I'm tired

                                   Cm

Yeah, I've been working a week and I'm

     F              G

Just living for the weekend

G

Hey hey

                          Eb

Got some money I just got paid

                          Cm

Got some money and I can't wait

   F               G

At six o'clock I'm out of here


BRIDGE

Cm

Out there tonight

       F                       G

Is the night of my last got my name on

Cm                    F

Run down my street adidas on my feet

       Dm

I'm on fire


CHORUS

                G

Working all the time

               Cm

Work is such a bind

               F

Got some money to spend

               G

Living for the weekend

When it gets too much

       Cm

I live for the rush

               F

Got some money to spend

               G

Living for the weekend


VERSE

G

Oh man!

                                   Eb

Yeah I've been working a week, I'm shot

                                  Cm

Yeah I've been working a week for what?

     F              G

Just living for the weekend


G

Ah sh*t!

                             Eb

So my clothes are all counterfeit

                        Cm

So my name isn't on the list

        F                 G

'No you can't come in, so go home boys!'


BRIDGE

Cm                          F

Slip round the back look at that

                       G

There's a crack toilet window

Cm                          F

Drop to the floor covers us through the door

       Dm

I'm on fire


CHORUS

                G

Working all the time

               Cm

Work is such a bind

               F

Got some money to spend

               G

Living for the weekend

When it gets too much

       Cm

I live for the rush

               F

Got some money to spend

               G

Living for the weekend


OUTRO

        Cm           F

Can you feel it?

                  G

Feel the pressure... rising

F                 G

Pushing down on me, oh lord!

          Cm        F                  G

Pressure, pressure, pressure, pressure pressure

Feel the pressure

Cm        F                  G

Pressure, pressure, pressure pressure

                                       Cm

Living for the weekend, Living for the weekend

               F                       G

Living for the weekend, Living for the weekend

                                       Cm

Living for the weekend, Living for the weekend

               F                       G

Living for the weekend, Living for the weekend


OUTRO

                         Cm

Going out tonight, going out tonight

     F                   G

Baby you and I are going out tonight [repeat x4]
            
Hard to play? Try these video lessons and learn fast. | Correct




comments powered by Disqus
↑ Back to top | Tablatures and chords are parodies/interpretations of the original songs. You may use it for private study, scholarship, research or language learning purposes only