» » »

Living For The Weekend Bass tabs (ver.2)

Artists:  A B C D E F G H I J K L M N O P Q R S T U V W X Y Z # 

Living For The Weekend Bass tabs (ver.2)

Hard-Fi
Rating:
3/5 (1 vote)

Hard to play? Try these video lessons and learn fast.
                Intro
G------12--10------------------------------------------------12-10------|
D--------------12----------12-10------------12-10------------------12---|
A10-------------------------------13---10---------------10-10-----------|
E-------------------11-----------------------------13-13----------------|

G------12--10-------------------------------------------------------------|
D---------------12-------12-10-----------12-10---------------12-10--------|
A10-----------------------------13---10-------------------10--------------|
E-------------------11-------------------------------13-13----------------|

(Guitar comes in
G------12-12-10-10-----------------------------------------------12-12--10-10------|
D------------------12-------12-12-10-10---------12-10-------------------------12---|
A10-10----------------------------------13---10-------------10-10------------------|
E---------------------11-11----------------------------13-13-----------------------|

G------12-12-10-10----------------------------------------------------------|
D------------------12-------12-12-10-10---------12-10---------------12-10---|
A10-10----------------------------------13---10-----------------10----------|
E---------------------11-11------------------------------13-13--------------|)

Verse


G--------------------------------------------------|
D--------------------------------------------------|
A------------3-3-3-3-3-3---------------------------|
E3-3-3-3-3-3--------------3-3-3-3-3-3-3-3-3-3-3-3--|


G-----------------------------------------------------------------|
D-----------------------------------------------------------------|
A---------------10-10-10-10-10-10----------------10-10-10-10-10-10|
E--8-8-8-8-8-8--------------------8-8-8-10-10-10------------------|

G---------------------------------------------------------------------------|
D--------------------------------------------------------------12121212-----|
A-10-10-10-10-10-10-10-10-10-10-10-10-10-10-10-10-10-10-10-10---------------|
E---------------------------------------------------------------------------|

G-----------------------------------------------------------------|
D12-12-10-10-8-7-5------------------------------------------------|
A-----------------------------------------------------------------|
E-----------------------------------------------------------------|


its my first tab, but i spent ages on it and its all fairly accurate but some parts are 
and just on the second last tab the 12's are repeated more times.
Katharine, 14.
            
Hard to play? Try these video lessons and learn fast. | Correct




comments powered by Disqus
↑ Back to top | Tablatures and chords are parodies/interpretations of the original songs. You may use it for private study, scholarship, research or language learning purposes only