» » »

Living For The Weekend Tabs (ver.1)

Artists:  A B C D E F G H I J K L M N O P Q R S T U V W X Y Z # 

Living For The Weekend Tabs (ver.1)

Hard-Fi
Rating:
2/5 (3 votes)

Hard to play? Try these video lessons and learn fast.
                
Tuning:standard (EADGBe) low to high
MAIN RIFF/CHORUS
e|-------|-------------------------|----------------------|----------------|
B|-------|-------------------------|----------------------|----------------|
G|-------|.-----12-12-10-10--------|----------------------|----------------|
D|-------|.-----------------12-----|-----12-12-10-10------|---/12-10-------|
A|--10---|--10---------------------|-----------------13---|----------------|
E|-------|---------------------11--|--11----------------8-|-8--------13-10-|
   1st rpt                  2nd rpt
e|-----------------------|-------------------------------------------------|
B|-----------------------|-------------------------------------------------|
G|-----12-1210-10-------.|-----12-12-10-10---------------------------------|
D|----------------12----.|-----------------12\-----------------------------|
A|--10---------------10--|--10---------------------------------------------|
E|-----------------------|-------------------------------------------------|
VERSE
e|------------------------|-----------------------|------------------------|
B|------------------------|-----------------------|------------------------|
G|.12-12-12-12-12-12-12-12|12-12-12-12-12-12-12-12|12-12-12-12-12-12-12-12-|
D|.12-12-12-12-12-12-12-12|12-12-12-12-12-12-12-12|13-13-13-13-13-13-13-13-|
A|------------------------|-----------------------|------------------------|
E|------------------------|-----------------------|------------------------|

e|------------------------|-----------------------|------------------------|
B|------------------------|-----------------------|10-10-10-10-10-10-10-10-|
G|-12-12-12-12-12-12-12-12|12-12-12-12-12-12-12-12|10-10-10-10-10-10-10-10-|
D|-13-13-13-13-13-13-13-13|13-13-13-13-13-13-13-13|------------------------|
A|------------------------|-----------------------|------------------------|
E|------------------------|-----------------------|------------------------|

e|------------------------|------------------------|
B|------------------------|------------------------|
G|-12-12-12-12-12-12-12-12|12-12-12-12-12-12-12-12.|
D|-12-12-12-12-12-12-12-12|12-12-12-12-12-12-12-12.|
A|------------------------|------------------------|
E|------------------------|------------------------|

PRE CHORUS
e|------------------------|-----------------------|------------------------|
B|------------------------|-----------------------|------------------------|
G|-12-12-12-12-12-12-12-12|12-12-12-12-12-12-12-12|12-12-12-12-12-12-12-12-|
D|-13-13-13-13-13-13-13-13|13-13-13-13-13-13-13-13|12-12-12-12-12-12-12-12-|
A|------------------------|-----------------------|------------------------|
E|------------------------|-----------------------|------------------------|

e|------------------------|-----------------------|------------------------|
B|------------------------|10-10-10-10-10-10-10-10|------------------------|
G|-12-12-12-12-12-12-12-12|10-10-10-10-10-10-10-10|11-11-11-11-11-11-11-11-|
D|-13-13-13-13-13-13-13-13|-----------------------|12-12-12-12-12-12-12-12-|
A|------------------------|-----------------------|12-12-12-12-12-12-12-12-|
E|------------------------|-----------------------|10-10-10-10-10-10-10-10-|

                               BRIDGE
e|---------------------------|-----------3--3--3--3--3--3--3--|------------|
B|---------------------------|-----------3--3--3--3--3--3--3--|------------|
G|-11-11-11-11-11-11-11-11---|-----------3--3--3--3--3--3--3--|------------|
D|-12-12-12-12-12-12-12-12---|--------------------------------|------------|
A|-12-12-12-12-12-12-12-12-10|-10\----------------------------|----10------|
E|-10-10-10-10-10-10-10-10---|--------------------------------|------------|

THE END ENJOY. 
FEEL FREE TO POST ANY COMMENTS OR SUGGESTIONS.




| /  slide up
| \  slide down
| h  hammer-on
| p  pull-off
| ~  vibrato
| +  harmonic
| x  Mute note
=============================================================
            
Hard to play? Try these video lessons and learn fast. | Correct




comments powered by Disqus
↑ Back to top | Tablatures and chords are parodies/interpretations of the original songs. You may use it for private study, scholarship, research or language learning purposes only