» » »

Hard-Fi, King Tabs (ver.1)

Artists:  A B C D E F G H I J K L M N O P Q R S T U V W X Y Z # 

King Tabs (ver.1)

Hard-Fi Tabs
 Rating:
4/5 (4 votes)
King lessons Tabs too difficult? Try these video lessons and learn fast
                Okay, so this is about 95% correct bar a 1 or maybe 2 notes.
Anyway here's the song and I hope you enjoy 

#Verse 1

   Shape hand to:
       (Am)                 (C)
e|-----------------------------------------|
B|--------------1------------------1-------|
G|------2------------------0---------------|
D|----------2------------------2-----------|
A|--0------------------3-------------------|
E|-----------------------------------------|
       (Fm)                 (E)
e|-----------------------------------------|
B|--------------1------------------0-------|
G|------2------------------1---------------| x5
D|----------3---------------------------2-2|(Once in intro,4 times for verse)
A|-----------------------------2-----------|
E|--1------------------0---------------0-0-| 

        (Am)                   (C)    
In this town, I used to be the king here
                   (Fm)                            (E)
Now I don't mean a thing here, Where did it all go wrong?

I look around, and noone knows my face here
I feel so out of place here, Where did all go wrong?
I say your name, And I wonder where you are now,
I hope you're doing fine now, Well I hope that you found love...

**Now at this part is where you start strumming, with a slow build up to the chorus**

#Bridge
                (Fm)                     (C)  
I hope that you found love...     Ooooooooh
(E)             (Fm)                     (C)     (E)
I hope that you found love...     Ooooooooh

#Chorus
                   (Am)                 (Fm)
I've been thinking of you, every waking hour,
               (C)                               (E)
Staring at the wall, trying to find the nerve to call-
                          (Am)                         (Fm)
Look at your photo and I wonder, Are you still on this number?
                  (C)                                (E)
But In my heart I know, You changed that number long ago

Once I was The King

#Verse 2

     (Am)                 (C)
e|-----------------------------------------|
B|--------------1------------------1-------|
G|------2------------------0---------------|
D|----------2------------------2-----------|
A|--0------------------3-------------------|
E|-----------------------------------------|
       (Fm)                 (E)
e|-----------------------------------------|
B|--------------1------------------0-------|
G|------2------------------1---------------| x5
D|----------3---------------------------2-2|(Little break, then 4 for verse)
A|-----------------------------2-----------|
E|--1------------------0---------------0-0-| 
            (Am)                      (C)
We said goodbye, You begged me not to leave you
                 (Fm)                            (E)
I didn't want to leave you, but you know I had to go

I said look for me, when the spring sun shines on the street
Where we'd meet and plan our future, But I never made it home,
I turn around, head on over to your house yeah
Just in case you might still be there, but now they've pulled it down

#Bridge
                    (Fm)                     (C) 
Now they've pulled it down...           Ooooooooh
(E)                 (Fm)                            (C)     (E)
I hope that you've found love     Wonder what your doing noooow
(E)                 (Fm)                            (C)     (E)
I hope that you've found love     Wonder what your doing noooow
(E)                 (Fm)                            (C)     (E)
I hope that you've found love     Wonder what your doing noooow

#Chorus + Ending

I've been thinking of you, every waking hour,
               (C)                               (E)
Staring at the wall, trying to find the nerve to call-
                          (Am)                         (Fm)
Look at your photo and I wonder, Are you still on this number?
                  (C)                                (E)
But In my heart I know, You changed that number long ago
                           (Am)
Nowhere is home, and I feel old,
                                 (Fm)
My clothes are torn, My heart is cold,
                   (C)
With you I was The King,
                            (E)
But with you my heart would sing,
                   (Fm)
But now my story's done,
           (E)
Now I'm no one...
                   (Am) - Let it ring
But once I was The King
            
Submit corrections

comments powered by Disqus
↑ Back to top | Hard-Fi Tabs for King. Lyrics for acoustic guitar and electric guitar. Tablatures and chords are parodies/interpretations of the original songs. You may use it for private study, scholarship, research or language learning purposes only