» » »

Hard-Fi, Gotta Reason Tabs (ver.2)

Artists:  A B C D E F G H I J K L M N O P Q R S T U V W X Y Z # 

Gotta Reason Tabs (ver.2)

Hard-Fi Tabs
Rating:
0/5 (0 votes)
Gotta Reason lessons Tabs too difficult? Try these video lessons and learn fast
                I know for certain that the solo is wrong but it was as close as i could be 
bothered to get. I"m pretty sure the rest of it is pretty close though

Intro:
e|---------------------------------------|
B|---------------------------------------|
G|--00-3-0-----5-3---00-3-0-----5-3------|
D|---------0-1-----3--------0-1------3---|
A|---------------------------------------|
E|---------------------------------------|

Verse:
e|-----------------------------|
B|---------------------9-9-9---|
G|--------88--------88---------|
D|--55----88---55---88-8-8-8---|
A|--55----66---55---66-6-6-6---|
E|--33---------33--------------|

Pre Chorus:
e|---------------------------------------------------------------------------------|
B|---------------------------------------------------------------------------------|
G|--5-5-5-5-5-5-5-5-5-7-7-7-7-7-7-7-7-7-3-3-3-3-3-3-3-3-3-7777777777777777777------|
D|--5-5-5-5-5-5-5-5-5-7-7-7-7-7-7-7-7-7-3-3-3-3-3-3-3-3-3-7777777777777777777------|
A|--3-3-3-3-3-3-3-3-3-5-5-5-5-5-5-5-5-5-1-1-1-1-1-1-1-1-1-5555555555555555555------|
E|---------------------------------------------------------------------------------|

Solo:
e|---------------------------------------------------------------------------|
B|--03303303-5555553-03303303-7777553-03303303-555555355-35535-7777553-------|
G|--03303303-5555553-03303303-7777553-03303303-555555355-35535-7777553-------|
D|---------------------------------------------------------------------------|
A|---------------------------------------------------------------------------|
E|---------------------------------------------------------------------------|

Order:

- Intro 
- Verse
- Intro
- Verse
- Intro
- Pre Chorus
- Intro
- Verse
- Intro
- Verse
- Intro
- Pre Chorus
- Intro
- Solo
- Intro
            
Submit corrections

comments powered by Disqus
↑ Back to top | Hard-Fi Tabs for Gotta Reason. Lyrics for acoustic guitar and electric guitar. Tablatures and chords are parodies/interpretations of the original songs. You may use it for private study, scholarship, research or language learning purposes only