» » »

Hard-Fi, Gotta Reason Bass tabs (ver.1)

Artists:  A B C D E F G H I J K L M N O P Q R S T U V W X Y Z # 

Gotta Reason Bass tabs (ver.1)

Hard-Fi Tabs
 Rating:
4/5 (4 votes)
Gotta Reason lessons Tabs too difficult? Try these video lessons and learn fast
1
                This is my first tab, this is how i would play it so, yea have fun.

To start there are two drum beats then bass comes in with guitar.

Main Riff:

G:-0---0---3---0-----------5---3--------|
D:-----------------3-/-1-----------3----|  X12
A:--------------------------------------|
E:--------------------------------------|

Build up:

G:-----------------------------------------------------------|
D:-----------------------------------------------------------|  X2
A:-3-3-3-3-3-3-3-3-3-3-3-3-3-3-5-5-5-5-5-5-5-5-5-5-5-5-5-5---|
E:-----------------------------------------------------------|

Main Riff: (Play all through guitar solo aswell!)

G:-0---0---3---0-----------5---3--------|
D:-----------------3---1-----------3----|  X18
A:--------------------------------------|
E:--------------------------------------|

(Break followed by double drum beat. Then play the main riff four times while fading 
You should be finished by the time you finish the 4th riff.)
            
Submit corrections

comments powered by Disqus
↑ Back to top | Hard-Fi Bass for Gotta Reason. Lyrics for acoustic guitar and electric guitar. 1 Tablatures and chords are parodies/interpretations of the original songs. You may use it for private study, scholarship, research or language learning purposes only