>
 >
Sono Le 11

Sono Le 11 Bass Tabs

Harddiskaunt - Sono Le 11 chords, tabs, tablatures, lyrics

Guitar lessons | Add/correct | Request | Top 50 tabs Artists:  A B C D E F G H I J K L M N O P Q R S T U V W X Y Z 0-9

Sono Le 11 Bass Tabs – Harddiskaunt

CD, Sheet music, Poster

Do you like Sono Le 11? Share with your friends now
Bass Tabs
HarDdisKauNt - SoNo lE 11

Intro
G||---------------|       
D||-4-2-----------|  
A||-----4-2-------|      
E||---------5-4-2-|       

PArt 1 
G||-----------|-----------|
D||-----------|-----------| X4
A||-9-9-9-9-7-|-5-5-5-5-7-|
E||-----------|-----------|

G||---------|------------|----------|-------------|
D||---------|--------1---|---4-5--7-|---------3---| X4 
A||-------4-|--2-2-2---2-|-5--------|---4-4-4---4-|
E||-2-4-5---|------------|----------|-------------|


PArt 2 - Verse 
G||-------------|--------------|-------------|-----------------|
D||-------------|--------------|-------------|-----------------|  
A||---------2-4-|-5--5--4--2-0-|---------2-4-|-5--5--4-5-4-2-0-|
E||-2--4--5-----|--------------|-2--4--5-----|-----------------|

  |-------------|--------------|-------------|--------------|
  |-------------|--------------|-------------|--------------|  
  |---------2-4-|-5--5--4--2-0-|---------2-4-|-5--5--5-4--0-|
  |-2--4--5-----|--------------|-2--4--5-----|--------------|

  |-----------|-----------|
  |-----6--6--|-----4--4--| X2
  |-4---------|-2---------|
  |-----------|-----------|


PArt 3 - Chorus
G||-----------------|-----------------|-----------------|---------------|
D||-----------------|-----------------|---------6-6-----|----4-------6--|X4 
A||-----4-4-7-7-4-4-|-----------------|-4-4-7-7-----7-7-|5-5---5-7-7---7|
E||-5-5-------------|-0-0-4-4-7-7-4-4-|-----------------|---------------|

PARt 1

PArt 2 - Verse

PArt 3 - Chorus

PArt 4 - BRidGe - Ripeti la prima parte della PArt 1 poi...

G||---------------|--------------|
D||---------------|--------------| X4
A||-9--9-9-7-9--4-|-5--5-5-4-5---|
E||---------------|------------0-|

  |---11-11-11-11-11-|--4--4--4--4-|--7--7--7--7-|--9--9--9--9-|
  |------------------|-------------|-------------|-------------|X4 
  |-9--9--9--9--9----|-2--2--2--2--|-5--5--5--5--|-7--7--7--7--|
  |------------------|-------------|-------------|-------------|

  |---------------|       
  |-4-2-----------|  
  |-----4-2-------|      
  |---------5-4-2-|  

PArt 3 - Chorus - Ripetuto 8 volte con una variazione alla fine... 

OUtro
G||---------|------------|----------|-------------|
D||---------|--------1---|---4-5--7-|---------3---| X4 
A||-------4-|--2-2-2---2-|-5--------|---4-4-4---4-|
E||-2-4-5---|------------|----------|-------------|

  |----|
  |----|
  |----|
  |-2--|


Tablatura a cura del Mai.





Comments


Popular Harddiskaunt tabs & chords
Amsterdam Train Bass Tabs
La Soluzione Bass Tabs
Lo Squalo Bass Tabs
Piccolo Uomo Bass Tabs
Scooter Boy Bass Tabs


Song lyrics



↑ Back to top | Tablatures and chords are parodies/interpretations of the original songs. You may use it for private study, scholarship, research or language learning purposes only
© 2014 AZChords.com Contact us | Privacy policy | DMCA | Add/correct tabs | Request tabs | Top 50 tabs