» » »

Harddiskaunt, Scooter Boy Bass tabs (ver.1)

Artists:  A B C D E F G H I J K L M N O P Q R S T U V W X Y Z # 

Scooter Boy Bass tabs (ver.1)

Harddiskaunt Tabs
 Rating:
4/5 (4 votes)
Scooter Boy lessons Tabs too difficult? Try these video lessons and learn fast
1
                HardDiSKaUnt - sCooTeR Boy

Intro                                                                         
G||------------|-----------|------------|--------------|
D||------------|-----------|------------|--------0-1-2-|
A||------1--1--|------3-3--|------1--1--|------3-------|
E||-1----------|-1---------|-1----------|-1------------|

PArt 1                                             
G||-----------------|-----------------|-----------------|----------------|
D||-3-1-0-----------|---------------2-|-3-1-0-----------|----------------|
A||-------3-1-0-----|-----0-1-1---3---|-------3-1-0-----|-----0-1--3-3-3-|
E||-------------3-1-|-1-3-------3-----|-------------3-1-|-1-3------------|

PArt 2 - Verse
G||-----------------|-----------------|-----------------|-----------------|
D||-3-1-0-----------|---------------2-|-3-1-0-----------|---------------2-|
A||-------3-1-0-----|-----0-1-1---3---|-------3-1-0-----|-----0-1-1---3---|
E||-------------3-1-|-1-3-------3-----|-------------3-1-|-1-3-------3-----|

  |---0-2-3-3-4-5\---|-----------------|-----------------|
  |-3--------------2-|-3-1-0-----------|-3-1-0-----------|
  |------------------|-------3-1-0-----|-------3-1-0-----|
  |------------------|-------------3-1-|-------------3-1-|

  |-----------------|-----------------|-----------------|-------------|
  |---------------2-|-3-1-0-----------|---------------2-|-------------|
  |-----0-1-1---3---|-------3-1-0-----|-----0-1-1---3---|-3-3---3-3-3-|
  |-1-3-------3-----|-------------3-1-|-1-3-------3-----|-------------|


PArt 3 - Chorus
G||-----------------|---------------------|
D||-3---------------|-----------------0-2-|  X 4 (l'ultima volta suona solo 
A||---0-1-2-3-----0-|-1-1-1-0-1-1---3-----|      le prime 5 note...)
E||-----------0-1---|--------------------                                      

PArt 1 

PArt 2 - Verse - L'unica variazione è che il giro alto si ripete 2 volte...

PArt 3 - Chorus

Guitar Solo - Ripetere il giro del verso (PArt 2) 2 volte...

PArt 3 - Chorus

				        G||--------------|
Outro - Ripetere l'Intro e finire con   D||------------3-|
					A||------3-3-3---|
					E||-1------------|


Tutto tablato dal Mai... giusto si spera...Chi Vespa mangia le mele..
            
Submit corrections

comments powered by Disqus
↑ Back to top | Harddiskaunt Bass for Scooter Boy. Lyrics for acoustic guitar and electric guitar. 1 Tablatures and chords are parodies/interpretations of the original songs. You may use it for private study, scholarship, research or language learning purposes only