» » »

Harddiskaunt, Piccolo Uomo Bass tabs (ver.1)

Artists:  A B C D E F G H I J K L M N O P Q R S T U V W X Y Z # 

Piccolo Uomo Bass tabs (ver.1)

Harddiskaunt Tabs
 Rating:
4/5 (4 votes)
Piccolo Uomo lessons Tabs too difficult? Try these video lessons and learn fast
                HarDdisKauNt - PicCoLO uOmo

PArt 1 - Intro 
G||-----------------|----------------|         |-----------------|
D||-----------------|----------------|  X3  +  |-----------------|
A||-2-2-2-2---------|----------------|         |-2-2-2-2---------|
E||---------2-2-2-4-|--4-4-4-4-4-4-4-|         |---------0-0-0-2-|

PArt 1  
G||-----------------|-----------------|-----------------|-----------------|
D||-----------------|-----------------|-----------------|-----------------| X2
A||-2-2-2-2-2-2-2-2-|-----------------|-----------------|-----------------|
E||-----------------|-2-2-2-2-2-2-2-2-|-4-4-4-4-4-4-4-4-|-2-2-2-2-2-2-2-2-|

PArt 2 - Verse
G||-----------------|-----------------|-----------------|-----------------|
D||---1-2-4-----1---|-----------------|-----------------|---------4-2-1---| 
A||-2-------2-2---2-|---1-2-4-----1---|-----6-------6---|---1-2-4-------4-|
E||-----------------|-2-------2-2---2-|-4-7---7-4-7---4-|-2---------------|

  |-----------------|---3-4-6---3-4-6-|-----8-------8---|---3-4-6---------|
  |---1-2-4---1-2-4-|-4-------4-------|-6-9---9-6-9---6-|-4--------4-2-1--| 
  |-2-------2-------|-----------------|-----------------|----------------4|
  |-----------------|-----------------|-----------------|-----------------|


PArt 3 - Chorus
G||-----|-----|-----|-----|-----------------|-----------------|
D||-----|-----|-----|-----|-----------------|-----------------| X2 
A||-----|-----|-2---|-----|-----------------|-2-2-2-2-2-2-2-2-|
E||-0---|-2---|-----|-4---|-0-0-0-0-2-2-2-2-|-----------------|

   |-------|
 + |-------|
   |-3-4-5-|
   |-------|

PArt 1

PArt 2 - Verse

PArt 3 - Chorus

PArt 4 - Durante l'Assolo...
G||-----------------|-----------------|-----------------|----------------|
D||-----------------|-----------------|-----------------|----------------|X2
A||-2-2-2-2-2-2-2-2-|-9-9-9-9-9-9-9-9-|-7-7-7-7-7-7-7-7-|-9-9-9-9-9-9-9-9|
E||-----------------|-----------------|-----------------|----------------|


Part 3 - Chorus

Part 1 - 2X


A cura del Mai - Ska-Core by HD
            
Submit corrections

comments powered by Disqus
↑ Back to top | Harddiskaunt Bass for Piccolo Uomo. Lyrics for acoustic guitar and electric guitar. Tablatures and chords are parodies/interpretations of the original songs. You may use it for private study, scholarship, research or language learning purposes only