» » »

Harddiskaunt, Lo Squalo Bass tabs (ver.1)

Artists:  A B C D E F G H I J K L M N O P Q R S T U V W X Y Z # 

Lo Squalo Bass tabs (ver.1)

Harddiskaunt Tabs
Rating:
0/5 (0 votes)
Lo Squalo lessons Tabs too difficult? Try these video lessons and learn fast
                HarDdisKauNt - Lo sQualO

Intro 
G||-------|      |-------------|-------------|
D||-------| X3 + |-------------|-------------|
A||--4/5--|      |-------------|-7--5--4-----|
E||-------|      |-7--7--7--7--|----------7--|


PArt 1 - Giro Principale

G||--------------|--------------|-------------|-------------|
D||--------------|----4--7--4-7-|-------------|-------------|  
A||----4--7--4-7-|-5------------|----4--5--7--|-7--5--4-----|
E||-5------------|--------------|-5-----------|----------7--|


PArt 2 - Pre-Chorus
G||-------------|-------------|      |-------------|-------------|
D||-------6-----|-------------| X3 + |-------------|-------------|
A||-4--7-----7--|-5--4--------|      |-------------|-7--5--4-----|
E||-------------|-------7--5--|      |-7--7--7--7--|----------7--|


PArt 1 - Ripetuta due volte prima del Verso e due volte nel verso stesso...


Part 2 - Pre-Chorus


PArt 3 - Chorus
G||-------------|-------------|--------------|---------|
D||-------------|-------------|------------2-|---------| X3 
A||-5--3--2--0--|-------0--2--|-3--3--3--3---|--5--5---|
E||-------------|-3--3--------|--------------|---------|

  |-------------|-------------|------------|---------------|
  |-------------|-------------|------------|---------------|  
  |-5--3--2--0--|-------0--2--|-3---3----7-|--7-7-7-7-7-7-7|
  |-------------|-3--3--------|------------|---------------|

PArt 1 

PArt 2 

PArt 1 

PArt 2

PArt 3 

Guitar Solo - Ripeti la Part 1 4 volte...

PArt 2 

Part 4 - Bridge

G||-----------------|-----------------|-----------------|----------------|
D||-----------------|-----------------|-----------------|----------------|  
A||-----------------|-5-5-5-5-5-5-5-5-|-----------------|-7-7-7-7-7-7-7\-|
E||-5-5-5-5-5-5-5-5-|-----------------|-5-5-5-5-5-5-5-5-|----------------|

                                                    |-------------|
La seconda volta l'ultima battuta va sostituita con |-------------|
                                                    |-7--5--4-----|
                                                    |----------7--|

PArt 1 - Ripetuta 4 volte...

Part 2 - solo il primo pezzo... 

Finisci con...

G||--------|--------|-------------|--------|
D||--------|--------|-------------|--------|  
A||-7---7--|-7---7--|-7--5--4-----|--------|
E||--------|--------|----------7--|-5-5-5--|


Tab a cura del Mai...Rude Bass Player.. 
            

comments powered by Disqus
↑ Back to top | Harddiskaunt Bass for Lo Squalo. Lyrics for acoustic guitar and electric guitar. Tablatures and chords are parodies/interpretations of the original songs. You may use it for private study, scholarship, research or language learning purposes only