>
 >
La Soluzione

La Soluzione Bass Tabs

Harddiskaunt - La Soluzione chords, tabs, tablatures, lyrics

Guitar lessons | Add/correct | Request | Top 50 tabs Artists:  A B C D E F G H I J K L M N O P Q R S T U V W X Y Z 0-9

La Soluzione Bass Tabs – Harddiskaunt

CD, Sheet music, Poster

Do you like La Soluzione? Share with your friends now
Bass Tabs
HarDdisKauNt - La soLuZiONe

PArt 1 - Giro principale
G||--------------------------|-----------------------------|         
D||----7--4------------------|-------4-----5--5--5h7p5-4---|   
A||-5--------5---------4--7--|-2--5-----5----------------7-|        
E||-------------5--5-5-------|-----------------------------|         

PArt 2 - Chorus
G||-----------------|-----------------|----------------|----------------|
D||-----------------|-----------------|----------------|----------------|X2 
A||-2-2-2-2---------|-5-5-5-5-7-5-4---|--2-2-2---------|-5-5-5-5-7-7-7-7|
E||---------3-3-3-3-|---------------5-|--------3-3-3-3-|----------------|

PArt 1

PArt 2 

Part 3 - Bridge
G||------------|-----------|-----------|------------|
D||-------4----|-----------|-----------|------------| X3 
A||-----7----5-|-----------|-----------|------------|
E||------------|-5-5---5-6-|-7-7---0-2-|-3--2-3-5\--|

G||------------|-----------|-----------|-----------|
D||-------4----|-----------|-----------|-----------|  
A||-----7----5-|-----------|-----------|---2-5-----|
E||------------|-5-5---5-6-|-7-7---0-2-|-3-----5---|

PArt 1 

PArt 4
G||---------------------------------|        
D||---------------------------------|  
A||-5-5-5-5-5-5-5-5-----------------|       
E||-----------------5-5-5-5-5-5-5-5-|

  |--------------------------------| 
  |--------------------------------| 
  |2-2-2-2-2-2-2-2-----------------| 
  |----------------3-3-3-3-3-3-3-3-| 

Finisci con

G||-----|
D||-----|
A||-5\--|
E||-----|


Tablatura a cura del Mai...Keep on skankin' 





Comments


Popular Harddiskaunt tabs & chords
Amsterdam Train Bass Tabs
Lo Squalo Bass Tabs
Piccolo Uomo Bass Tabs
Scooter Boy Bass Tabs
Sono Le 11 Bass Tabs


Song lyrics



↑ Back to top | Tablatures and chords are parodies/interpretations of the original songs. You may use it for private study, scholarship, research or language learning purposes only
© 2014 AZChords.com Contact us | Privacy policy | DMCA | Add/correct tabs | Request tabs | Top 50 tabs