>
 >
Amsterdam Train

Amsterdam Train Bass Tabs

Harddiskaunt - Amsterdam Train chords, tabs, tablatures, lyrics

Guitar lessons | Add/correct | Request | Top 50 tabs Artists:  A B C D E F G H I J K L M N O P Q R S T U V W X Y Z 0-9

Amsterdam Train Bass Tabs – Harddiskaunt

CD, Sheet music, Poster

Do you like Amsterdam Train? Share with your friends now
Bass Tabs
HarDdisKauNt - aMSterDam TrAIn

Intro 
G||-/6--2--------|----------2--|-/6--4--------|-------------2--|
D||--------4--2--|-4--2---4----|--------4--2--|-4--2--2-4-2----|
A||--------------|-------------|--------------|----------------|
E||--------------|-------------|--------------|----------------|

PArt 1 - Giro Principale  
G||-------------------------------|    |-------------------------------|
D||-------------------------------| X2 |-------------------------------| X2
A||----7-7-7-7-7-7----------7--7--|    |----4-4-4-4-4-4----------4--4--|
E||-5--------------5-5-5-5--------|    |-2--------------2-2-2-2--------|

PArt 2 - Chorus
G||---------------|------------------|
D||---------------|--------7---------| X3
A||--------7------|----4-7-----4-7-4-|
E||-0--4-7----7-4-|-5----------------|

  |---------------|------------------------|
  |----7------9---|------------------------|
  |-5----5-7----7-|--------4-7--------4-7--|
  |---------------|--5-5-5------5-5-5------|


PArt 1

PArt 2


PArt 3 - Bridge - Va tutto ripetuto 2 volte...
G||----------------------7-5---|---------------------------|
D||--------9-7---------------7-|--------7-5----------------|
A||------------9--5--5-5-------|------------7--------6-7-9-|
E||-7--7-7---------------------|-5--5-5-------7--7-7-------|

  |----------------------7-5---|----------------------------|
  |--------9-7---------------7-|----------------------------|
  |------------9--5--5-5-------|--------4-6-7---------------|
  |-7--7-7---------------------|-5--5-5-------7--7-7-5--5-5-|


PArt 1 - Durante il verso si gioca sempre sullo stesso giro...

PArt 2 - X2 Ok, c' una piccola variazione ma mi pareva inutile tablarla... 

PArt 3  

OUtro
G||-/6--4--------|-------------2--|
D||--------4--2--|-4--2--2-4-2----|
A||--------------|----------------|
E||--------------|----------------|



A cura del Mai... ev fan!





Comments


Popular Harddiskaunt tabs & chords
La Soluzione Bass Tabs
Lo Squalo Bass Tabs
Piccolo Uomo Bass Tabs
Scooter Boy Bass Tabs
Sono Le 11 Bass Tabs


Song lyrics



↑ Back to top | Tablatures and chords are parodies/interpretations of the original songs. You may use it for private study, scholarship, research or language learning purposes only
© 2014 AZChords.com Contact us | Privacy policy | DMCA | Add/correct tabs | Request tabs | Top 50 tabs