» » »

Wild Boys Tabs (ver.1)

Artists:  A B C D E F G H I J K L M N O P Q R S T U V W X Y Z # 

Wild Boys Tabs (ver.1)

Hardcore Superstar
Rating:
2/5 (2 votes)

Hard to play? Try these video lessons and learn fast.
                (Intro)
First tune down the E string to D so it looks like this
e
B
G
D
A
D

You can play this song in the ordinary tuning but it sounds better with Drop D.

INTRO
e--------------------------------------------------------|
B--------------------------------------------------------|
G--------------------------------------------------------|
D-------------------------------------------11-10-9--7---|
A-0--3--5--3--0--0--3--5--0--0--3--5--3--0--9--8--7--5---|
D-0--3--5--3--0--0--3--5--0--0--3--5--3--0---------------|        X2

Vers
Rythm Guitar
e--------------------------------------------------------|
B--------------------------------------------------------|
G--------------------------------------------------------|
D--------------------------------------------------------|
A--------------------------------------------------------|
D-0--3--5--3--0--0000--3--5--0--0--3--5--0--9--8--7--5---|  X4
            
Hard to play? Try these video lessons and learn fast. | Correct




comments powered by Disqus
↑ Back to top | Tablatures and chords are parodies/interpretations of the original songs. You may use it for private study, scholarship, research or language learning purposes only