» » »

Hardcore Superstar, Wild Boys Tabs (ver.2)

Artists:  A B C D E F G H I J K L M N O P Q R S T U V W X Y Z # 

Wild Boys Tabs (ver.2)

Hardcore Superstar Tabs
Rating:
4/5 (2 votes)
Wild Boys lessons Tabs too difficult? Try these video lessons and learn fast
                Intro:
e---------------------------------------------------------|
b---------------------------------------------------------|
g---------------------------------------------------------| x2
d--2--5-7-5-7---2--5-7-5-2---2--5-7-5-7---9-9-8-8--7-5----|
a--2--5-7-5-7---2--5-7-5-2---2--5-7-5-7---9-9-8-8--7-5----|
E--0--3-5-3-5---0--3-5-3-0---0--3-5-3-5---7-7-6-6--5-3----|

Verse:
e--------------------------------------------------------------------|
b--------------------------------------------------------------------|
g--------------------------------------------------------------------|
d--------------------------------------------------------------------| x4
a--------------------------------------------------------------------|
E--00-30-5-3-5-slide--00-3-0-5-3-0--00-30-5-3-5 slide--7-7-6-5-3-----|


CHIARRA SOLISTA

e--9b-8b-6b-4b-(2 bendindg)----------------------------|
b------------------------------------------------------|
g------------------------------------------------------|
d------------------------------------------------------|
a------------------------------------------------------|
E------------------------------------------------------|

pre chorus

e------------------------------------------------------|
b------------------------------------------------------|
g----------7-------7--5--------------------------------|
d--2---5---7-------7--5------------------x2------------|
a--2---5---5-------5--3--------------------------------|
E--0---3-----------------------------------------------|


Chorus:
e---------------------------------------------------------|
b---------------------------------------------------------|
g----------7---5----------7-------------------------------|
d--2---5---7---5----2--5--7-------------------------------|
a--2---5---5---3----2--5--5-------------------------------|
E--0---3------------0--3-------7-7--6-6--5--3---X2--------|


Intro 2 VOLTE

Verse UGUALE

PRE CHORUS UGUALE

Chorus:
e---------------------------------------------------------|
b---------------------------------------------------------|
g----------7---5----------7----5--------------------------|
d--2---5---7---5----2--5--7----5--(SFUMANDO)--------------|
a--2---5---5---3----2--5--5----3--------------------------|
E--0---3------------0--3----------------------------------|


ENTRA LA CHITARRA ACUSTICA


Special verse: (Clean)
   E   G   D   C   D     E   G   D  Pezzo arpeggiato....
e--0---3---2---0---2-----0---3---2--------------------|
b--0---3---3---1---3-----0---3---3--------------------|
g--1---0---2---0---2-x4--1---0---2--------------------|
d--2---0---0---2---0-----2---0---0--------------------|
a--2---2-------3---------2---2------------------------|
E--0---3-------3---------0---3------------------------|
(Dist)
e-----------------------------------------------------|
b-----------------------------------------------------|
g-----------------------------------------------------|
d-----------------------------------------------------|
a--222222222222222222222222222222222222222222222222---|
E--000000000000000000000000000000000000000000000000---| anche solo il 2 senza lo 0 va bene


Small pause with song and drums.

pre Chorus
e------------------------------------------------------|
b------------------------------------------------------|
g----------7-------7--5--------------------------------|
d--2---5---7-------7--5--------------------------------|
a--2---5---5-------5--3--------------------------------|
E--0---3-----------------------------------------------|

e------------------------------------------------------|
b------------------------------------------------------|
g----------7-------7-----------------------------------|
d--2---5---7-------7-----------------------------------|
a--2---5---5-------5-----------------------------------|
E--0---3----------------77-66-5-3--x 4 volte-----------|


chorus x 2 volte

Outro:
----------------|
----------------|
----------------|
-4--3--2--------|
-5--4--3--0-----|
----------3-----|      l'ultima nota è in armonico sullo 0


drum pause.

e----------------------------------------------|
b----------------------------------------------|
g----------------------------------------------|
d--2--5-7-5-7\---------------------------------|
a--2--5-7-5-7-slide----------------------------|
E--0--3-5-3-5/---------------------------------|


FEDEROCKER MILANO ITALY
            
Submit corrections

comments powered by Disqus
↑ Back to top | Hardcore Superstar Tabs for Wild Boys. Lyrics for acoustic guitar and electric guitar. Tablatures and chords are parodies/interpretations of the original songs. You may use it for private study, scholarship, research or language learning purposes only