» » »

Hardcore Superstar, Silence For The Peacefully Tabs (ver.1)

Artists:  A B C D E F G H I J K L M N O P Q R S T U V W X Y Z # 

Silence For The Peacefully Tabs (ver.1)

Hardcore Superstar Tabs
Rating:
3/5 (2 votes)
Hard to play? Try these video lessons and learn fast.
                ok, so 99 % sure this is correct. Didn't tab any solo because I haven't figured it out 
completely and personally I perfer improvising others solos. Scream for me and enjoy!

INTRO x2
e |------------------------------------------|
b |------------------------------------------|
g |-7-99-7-99-7-99--12121212-11-11--5-----7--|
d |-7-99-7-99-7-99--12121212-11-11--5--5--7--|
a |-5-77-5-77-5-77--10101010-9--9---3--5--5--|
E |------------------------------------3-----|

e |------------------------------------------|
b |------------------------------------------|
g |-7-99-7-99-7-99---------------------------|
d |-7-99-7-99-7-99--9-10--14-12121212--------|
a |-5-77-5-77-5-77--9-10--14-12121212--------|
E |-----------------7-8---12-10101010--------|

VERS
e |----------   |------------------------------|
b |----------   |------------------------------|
g |-9---9-12-   |-14-14-14-14-14-14-14-----7---|
d |-9-9-9-12-x8 |-14-14-14-14-14-14-14---5-7---|
a |-7-9-7-10-   |-12-12-12-12-12-12-12---5-5---|
E |---7------   |------------------------3-----|

while Bas or/  g|-----------------------------|
and 2nd guitar d|-----------------------------|
plays          a|--------------------------5--|
               E|-5--5--7--7--8--8--10---3----|

CHORUS x2

e |------------------------------------------|
b |------------------------------------------|
g |-7-99-7-99-7-99--12121212-11-11--5-----7--|
d |-7-99-7-99-7-99--12121212-11-11--5--5--7--|
a |-5-77-5-77-5-77--10101010-9--9---3--5--5--|
E |------------------------------------3-----|

e |------------------------------------------|
b |------------------------------------------|
g |-7-99-7-99-7-99---------------------------|
d |-7-99-7-99-7-99--9-10--14-12121212--------|
a |-5-77-5-77-5-77--9-10--14-12121212--------|
E |-----------------7-8---12-10101010--------|


VERS
e |----------   |------------------------------|
b |----------   |------------------------------|
g |-9---9-12-   |-14-14-14-14-14-14-14-----7---|
d |-9-9-9-12-x8 |-14-14-14-14-14-14-14---5-7---|
a |-7-9-7-10-   |-12-12-12-12-12-12-12---5-5---|
E |---7------   |------------------------3-----|

while Bas or/  g|-----------------------------|
and 2nd guitar d|-----------------------------|
plays          a|--------------------------5--|
               E|-5--5--7--7--8--8--10---3----|


CHORUS x 2

e |------------------------------------------|
b |------------------------------------------|
g |-7-99-7-99-7-99--12121212-11-11--5-----7--|
d |-7-99-7-99-7-99--12121212-11-11--5--5--7--|
a |-5-77-5-77-5-77--10101010-9--9---3--5--5--|
E |------------------------------------3-----|

e |------------------------------------------|
b |------------------------------------------|
g |-7-99-7-99-7-99---------------------------|
d |-7-99-7-99-7-99--9-10--14-12121212--------|
a |-5-77-5-77-5-77--9-10--14-12121212--------|
E |-----------------7-8---12-10101010--------|


BRIDGE
             |one guitar keeps playing E
e |----------|----------------|
b |----------|----------------|
g |-9-9-9----|-9-9-9-9-9------|
d |-9-9-9----|-9-9-9-9-9------|
a |-7-7-7----|-7-7-7-7-7------|
E |----------|----------------|

              another guitar plays
e |----------|----------------------------------|
b |----------|----------------------------------|
g |-9-9-9----|-12121212-11111111-9-7-4----------|
d |-9-9-9----|-12121212-11111111-9-7-4-5-7------|
a |-7-7-7----|-10101010-9-9-9-9--7-5-2-5-7------|
E |----------|-------------------------3-5------|

SOLO : play the INTRO/CHORUS


e |------------------------------------------|
b |------------------------------------------|
g |-7-99-7-99-7-99--12121212-11-11--5-----7--|
d |-7-99-7-99-7-99--12121212-11-11--5--5--7--|
a |-5-77-5-77-5-77--10101010-9--9---3--5--5--|
E |------------------------------------3-----|

e |------------------------------------------|
b |------------------------------------------|
g |-7-99-7-99-7-99---------------------------|
d |-7-99-7-99-7-99--9-10--14-12121212--------|
a |-5-77-5-77-5-77--9-10--14-12121212--------|
E |-----------------7-8---12-10101010--------|

e |------------------------------------------|
b |------------------------------------------|
g |-7-99-7-99-7-99--12121212-11-11--5-----7--|
d |-7-99-7-99-7-99--12121212-11-11--5--5--7--|
a |-5-77-5-77-5-77--10101010-9--9---3--5--5--|
E |------------------------------------3-----|

e |--------------------------------------------|
b |--------------------------------------------|
g |-7-99-7-99-7-99-----------------------------|
d |-7-99-7-99-7-99--9-10--14--9-7-5-4-2-0-2----|(jumps to chorus)
a |-5-77-5-77-5-77--9-10--14--9-7-5-4-2-0-2----|
E |-----------------7-8---12--7-5-3-2-0---0----|

ends with chorus x4 then:

e |------------------|
b |------------------|
g |-7-9-7-9-7-9------|
d |-7-9-7-9-7-9------|
a |-5-7-5-7-5-7------|
E |------------------|
            

comments powered by Disqus
↑ Back to top | Hardcore Superstar Tabs for Silence For The Peacefully. Lyrics for acoustic guitar and electric guitar. Tablatures and chords are parodies/interpretations of the original songs. You may use it for private study, scholarship, research or language learning purposes only