>
 >
She's Offbeat

She's Offbeat Guitar Tabs

Hardcore Superstar - She's Offbeat chords, tabs, tablatures, lyrics

Guitar lessons | Add/correct | Request | Top 50 tabs Artists:  A B C D E F G H I J K L M N O P Q R S T U V W X Y Z 0-9

She's Offbeat Guitar Tabs – Hardcore Superstar

CD, Sheet music, Poster

Do you like She's Offbeat? Share with your friends now
TabsTabs v2
p = Pull off
h = Hammer on
/ = Slide
||
||.
||.= Repeat
||
P.M = Palm Mute
b = Bend
~ = Vibrato


                                      |-------------Repeat 3 Times----------|


||----0------------------------------||-------0-----------------------------||
||----0------------------------------||-------0-----------------------------||
||-----------------------------------||.-----------------------------------.||
||------------/5-4--2p0h2-------/5-4-||.-0h2----------/5-4--2p0h2-----/5-4-.||
||-----------------------------------||-------------------------------------||
||-0-----0-----------------0---------||----------0-----------------0--------||

||-------------0------------------------------------------------------------||
||----5--5-----0--------------------------------5--5--5--3--3--3------------||
||----5--7--------------------------------------5--5--5--2--2--2------------||
||-0--5--7-----------/5-4---2p0h2-----/5-4--0---5--5--5--0--0--0------------||
||----3--5--------------------------------------3--3--3---------------------||
||----------0-----0---------------0--------------------------------12\------||

|---Repeat 3 Times----|                            |-----Repeat 8 Times-----|

||--------------------||--------------------------||--------------------------||
||--------------------||--------------------------||--------------------------||
||.------------------.||--------------------------||.----------------------.--||
||.----4-3-----------.||----4-3-------------------||.----2-2---------------.--||
||-----2-1------------||----2-1-------------------||-2------------------------||
||-0-------3-3-0-3-5--||-0-------3-3-2-0-3-3-5-5--||-0-------3-2-0-3-3-5-5----||
                                |------P.M------|           |-----P.M---------||

|----Repeat 2 Times---|

||--------------------||--------------------------||
||--------------------||--------------------------||
||.-5----7---------7-.||--5-5-5---7-7-7-----------||  Go Back To The First
||.-5----7---------7-.||--5-5-5---7-7-7-----------||  Repeat And Play Through
||--3----5----2----5--||--3-3-3---5-5-5-----------||  Again Exactly As It's
||--3----5----0----5--||--3-3-3---5-5-5---12\-----||  Written Down


SOLO

||--------------------------------------------------------------------------||
||-5--5--5---7--7--7---5--5--5---10-10-10~--17-20p17------20p17-----20p17---||
||-7b-7b-7b--9b-9b-9b--7b-7b-7b----------------------19--------19---------19||
||--------------------------------------------------------------------------||
||--------------------------------------------------------------------------||
||--------------------------------------------------------------------------||
                                                                  SOLO END
||--------------------------------------------------------------------------||
||-20p17-----20p17------------------14-14-14------------------7-7-7---------||
||-------19--------19--19b-19b-19b--14-14-14--12-14-14p12-----7-7-7---------||
||----------------------------------12-12-12--------------14--7-7-7---------||
||--------------------------------------------------------------------------||
||--------------------------------------------------------------------------||

||--------------------||--------------------------||
||--------------------||--------------------------||
||.-5----7---------7-.||--5-5-5---7-7-7-----------||
||.-5----7---------7-.||--5-5-5---7-7-7-----------||
||--3----5----2----5--||--3-3-3---5-5-5-----------||
||--3----5----0----5--||--3-3-3---5-5-5---12\-----||


|---Repeat 3 Times----|                          END Of Song

||--------------------||---------------------------------||
||--------------------||---------------------------------||
||--------------------||---------------------------------||
||.----4-3-----------.||----4-3--------------------------||
||.----2-1-----------.||----2-1-------------------2-2----||
||-0-------3-3-0-3-5--||-0-------3-3-2-0-3-3-5-5--0-0----||
                                 |-----P.M---------------||





Comments


Popular Hardcore Superstar tabs & chords
We Don't Celebrate Sundays 2 Bass Tabs
Liberation 1 Chords
Above The Law Tabs
Beat You Down Tabs
Have You Been Around Tabs
Medicate Me Tabs
Someone Special Tabs
Someone Special 1 Tabs
What Did I Do Tabs
Hope For A Normal Life Ukulele


Song lyrics



↑ Back to top | Tablatures and chords are parodies/interpretations of the original songs. You may use it for private study, scholarship, research or language learning purposes only
© 2014 AZChords.com Contact us | Privacy policy | DMCA | Add/correct tabs | Request tabs | Top 50 tabs