>
 >
Dreamin' In A Casket 1

Dreamin' In A Casket 1 Guitar Tabs

Hardcore Superstar - Dreamin' In A Casket 1 chords, tabs, tablatures, lyrics

Guitar lessons | Add/correct | Request | Top 50 tabs Artists:  A B C D E F G H I J K L M N O P Q R S T U V W X Y Z 0-9

Dreamin' In A Casket 1 Guitar Tabs – Hardcore Superstar

CD, Sheet music, Poster

Do you like Dreamin' In A Casket 1? Share with your friends now
TabsTabs v2
Go easy on me. First time tabbing. No tab for this on here so thought I'd give it a go. 
Let me know what you think!!

Intro:
E -0-0-0-0---0-0-0-0---0-0-7-0-0-0-0---0-0-0-0---0-0-7-0-0-0-0---0-0-0-0-----|
A ---------7---------7-----9---------7---------7-----9---------7---------7---|
D ---------9---------9-----9---------9---------9-----9---------9---------9---|
G ---------9---------9---------------9---------9---------------9---------9---|
B ---------------------------------------------------------------------------|
E ---------------------------------------------------------------------------|

E -0-0-7-0-0-0-0---0-0-0-0---0-0-7-------------------------------------------|
A -----9---------7---------7-----9--7-9-10-12-13--7-9-10-12-13--7-9-10-12-13-|
D -----9---------9---------9-----9-------------------------------------------|
G ---------------9---------9-------------------------------------------------|
B ---------------------------------------------------------------------------|
E ---------------------------------------------------------------------------|
                 Main Riff:
E -77-66-5-3-2---0-3-4-5-3-0---------0-0-00-00-00-00--0-3-4-5-3-0---------0-0-|
A ---------------------------8--7-5--2-2-22-22-22-22--------------8--7-5--2-2-|
D ---------------------------10-9-7--2-2-22-22-22-22--------------10-9-7--2-2-|
G ---------------------------10-9-7-------------------------------10-9-7------|
B ----------------------------------------------------------------------------|
E ----------------------------------------------------------------------------|

E -00-00-00-00--0-3-4-5-3-0---------0-0-00-00-00-00--0-3-4-5-3-0-------------|
A -22-22-22-22--------------8--7-5--2-2-22-22-22-22--------------8--7-5------|
D --------------------------10-9-7--2-2-22-22-22-22--------------10-9-7------|
G --------------------------10-9-7-------------------------------10-9-7------|
B ---------------------------------------------------------------------------|
E ---------------------------------------------------------------------------|
                       Verse:
E ---------------5555--0-3-4-5-0-----7-6-7-0-3-4-5-0----------0-3-4-5-0-----7-|
A -77777777-5555-7777------------7-5-----------------8-8--7-5-----------7-5---|
D -99999999-7777-7777--------------------------------8-8--9-7-----------------|
G -99999999-7777-------------------------------------1010-9-7-----------------|
B ----------------------------------------------------------------------------|
E ----------------------------------------------------------------------------|

E -6-7-0-3-4-5-0---5-0-3-4-5-0-----7-6-7-0-3-4-5-0-----------0-3-4-5-0-----7-|
A ---------------5-7-----------7-5-----------------8--8--7-5-----------7-5---|
D ---------------7-7-------------------------------10-10-9-7-----------------|
G ---------------7---------------------------------10-10-9-7-----------------|
B ---------------------------------------------------------------------------|
E ---------------------------------------------------------------------------|
                               Chorus:
E -6-7-8-8-8-8--7777-3333------0-3---------8-8-8-8--7777-5555------0-3-------|
A -----10101010-9999-5555-2222-2-5-9--10-5-10101010-9999-7777-2222-2-5-9--10-|
D -----10101010-9999-5555-4444-2-5-11-12-7-10101010-9999-7777-4444-2-5-11-12-|
G ------------------------4444-----11-12-7--------------------4444-----11-12-|
B ---------------------------------------------------------------------------|
E ---------------------------------------------------------------------------|
                        Bridge:
E ---3-5-77-7-7-77-7-7--0-0-0-0---0-0-0-0---0-0-7-0-0-0-0---0-0-0-0---0-0-7-0-|
A -5-----99-9-9-99-9-9----------7---------7-----9---------7---------7-----9---|
D -7----------------------------9---------9-----9---------9---------9-----9---|
G -7----------------------------9---------9---------------9---------9---------|
B ----------------------------------------------------------------------------|
E ----------------------------------------------------------------------------|
                                        Main Riff:
E -0-0-0---0-0-0-0---0-0-7-77-66-5-3-2--0-3-4-5-3-0--------0-0-00-00-00-00-0-|
A -------7---------7-----9--------------------------8--7-5-2-2-22-22-22-22---|
D -------9---------9-----9--------------------------10-9-7-2-2-22-22-22-22---|
G -------9---------9--------------------------------10-9-7-------------------|
B ---------------------------------------------------------------------------|
E ---------------------------------------------------------------------------|

E -3-4-5-3-0--------0-0-00-00-00-00-0-3-4-5-3-0--------0-0-00-00-00-00-0-3-4-|
A -----------8--7-5-2-2-22-22-22-22-------------8--7-5-2-2-22-22-22-22-------|
D -----------10-9-7-2-2-22-22-22-22-------------10-9-7-2-2-22-22-22-22-------|
G -----------10-9-7-----------------------------10-9-7-----------------------|
B ---------------------------------------------------------------------------|
E ---------------------------------------------------------------------------|
                                   Verse:
E -5-3-0----------------------5555-0-3-4-5-0-----7-6-7-0-3-4-5-0--------0-3-4-|
A -------8--7-5-77777777-5555-7777-----------7-5-----------------8--7-5-------|
D -------10-9-7-99999999-7777-7777-------------------------------10-9-7-------|
G -------10-9-7-99999999-7777------------------------------------10-9-7-------|
B ----------------------------------------------------------------------------|
E ----------------------------------------------------------------------------|

E -5-0-----7-6-7-0-3-4-5-0---5-0-3-4-5-0----7-6-7-0-3-4-5-0--------0-3-4-5-0-|
A -----7-5-----------------5-7----------7-5-----------------8--7-5-----------|
D -------------------------7-7------------------------------10-9-7-----------|
G -------------------------7--------------------------------10-9-7-----------|
B ---------------------------------------------------------------------------|
E ---------------------------------------------------------------------------|
                                     Chorus:
E -----7-6-7-8-8-8-8--7777-3333------0-3---------8-8-8-8--7777-3333------0-3-|
A -7-5-------10101010-9999-5555-2222-2-5-9--10-5-10101010-9999-5555-2222-2-5-|
D -----------10101010-9999-5555-4444-2-5-11-12-7-10101010-9999-5555-4444-2-5-|
G ------------------------------4444-----11-12-7--------------------4444-----|
B ---------------------------------------------------------------------------|
E ---------------------------------------------------------------------------|
                              Bridge:
E ---------3-5-77-7-7-77-7-7--0-0-0-0---0-0-0-0---0-0-7-0-0-0-0---0-0-0-0---0-|
A -9--10-5-----99-9-9-99-9-9----------7---------7-----9---------7---------7---|
D -11-12-7-----99-9-9-99-9-9----------9---------9-----9---------9---------9---|
G -11-12-7----------------------------9---------9---------------9---------9---|
B ----------------------------------------------------------------------------|
E ----------------------------------------------------------------------------|
                                                            Solo:
E -0-7-0-0-0-0---0-0-0-0---0-0-7-0-0-0-0---0-0-0-0---0-0-7-------------------|
A ---9---------7---------7-----9---------7---------7-----9-------------------|
D ---9---------9---------9-----9---------9---------9-----9-[Not tabbed Solo--|
G -------------9---------9---------------9---------9--------But it's in A]---|
B ---------------------------------------------------------------------------|
E ---------------------------------------------------------------------------|
Chorus:
E -0-3---------8-8-8-8--7777-3333-------0-3---------8-8-8-8--7777-33333------|
A -2-5-9--10-5-10101010-9999-5555-2222--2-5-9--10-5-10101010-9999-55555-2222-|
D -2-5-11-12-7-10101010-9999-5555-4444--2-5-11-12-7-10101010-9999-55555-4444-|
G -----11-12-7--------------------4444------11-12-7---------------------4444-|
B ---------------------------------------------------------------------------|
E ---------------------------------------------------------------------------|

E ----------------8-8-8-8--7777-3333---------------8-8-8-8--7777-3333--------|
A ----------------10101010-9999-5555---------------10101010-9999-5555-2222---|
D ----------------10101010-9999-5555---------------10101010-9999-5555-4444---|
G --------------------------------------------------------------------4444---|
B ----14-12-13-10-----------------------14-12-13-14--------------------------|
E -12--------------------------------12--------------------------------------|

Repeat til end!





Comments


Popular Hardcore Superstar tabs & chords
Have You Been Around Tabs
Moonshine Tabs
Moonshine 1 Tabs
No Resistance Tabs
Sensitive To The Light Tabs
Someone Special Tabs
We Don't Celebrate Sundays Tabs
Wild Boyz Tabs
Liberation Ukulele
Run To Your Mama Ukulele


Song lyrics



↑ Back to top | Tablatures and chords are parodies/interpretations of the original songs. You may use it for private study, scholarship, research or language learning purposes only
© 2014 AZChords.com Contact us | Privacy policy | DMCA | Add/correct tabs | Request tabs | Top 50 tabs