» » »

Happysad, Noc Jak Kazda Inna Bass tabs (ver.1)

Artists:  A B C D E F G H I J K L M N O P Q R S T U V W X Y Z # 

Noc Jak Kazda Inna Bass tabs (ver.1)

Happysad Tabs
Rating:
5/5 (1 vote)
Noc Jak Kazda Inna lessons Tabs too difficult? Try these video lessons and learn fast
                Intro i przejścia:
G-------------------------------------------------------------------|
D-------------------------------------------------------------------|
A-33--222222-7722335555-33--222222-7722335555-33--222222-7722335555-|
E---33--------------------33--------------------33------------------|

G------------|
D------------|
A-33--222222-|
E---33-------|

Noc jak każda inna noc… [i zwrotki]

G-------------------|
D-------------------|
A-33-55-7777777-----|    x4
E-------------------|

G-------------------------------------------------------------------|
D-------------------------------------------------------------------|
A-33--222222-7722335555-33--222222-7722335555-33--222222-7722335555-|
E---33--------------------33--------------------33------------------|

G------------|
D------------|
A-33--222222-|
E---33-------|

Troche więcej czasu, trochę więcej odwagi…

G---------------|
D---------------|
A-33-55-7777777-|
E---------------|

Ale wiedz, że nie powiem Ci…

G------------------------------       G--------------------------------|
D------------------------------       D--------------------------------|
A-555555555-33333----------33--   x3  A-555555555-33333------555555555-|
E----------------3333300000--30       E----------------333330----------|

I tak nie spotkamy się więcej i tak…

G-----------------------|
D-----------------------|
A-7733555555---00222222-|
E------------33---------| i to chyba x6.

Konczymy tak:

G------------------|
D------------------|
A-7733555555---002-|
E------------33----|
            

comments powered by Disqus
↑ Back to top | Happysad Bass for Noc Jak Kazda Inna. Lyrics for acoustic guitar and electric guitar. Tablatures and chords are parodies/interpretations of the original songs. You may use it for private study, scholarship, research or language learning purposes only