» » »

Happysad, Nie Ma Nieba Bass tabs (ver.1)

Artists:  A B C D E F G H I J K L M N O P Q R S T U V W X Y Z # 

Nie Ma Nieba Bass tabs (ver.1)

Happysad Tabs
Rating:
0/5 (0 votes)
Nie Ma Nieba lessons Tabs too difficult? Try these video lessons and learn fast
                -------------------------------------------------------------------------------
-------------------------------------------------------------------------------


Tuning: Standard

Verse & Chorus. x3
G|--------|--------|--------|--------|--------|--------|--------|---------|
D|--------|--------|--------|--------|--------|--------|--------|---------|
A|-0-0-0-0|-0-0-0-0|-5-5-5-5|-2-2-2-2|-0-0-0-0|-0-0-0-0|-5-5-5-5|-2-2-2-2-|
E|--------|--------|--------|--------|--------|--------|--------|---------|

G|--------|--------|--------|--------|--------|--------|--------|---------|
D|--------|--------|--------|--------|--------|--------|--------|---------|
A|-0-0-0-0|-0-0-0-0|-5-5-5-5|-2-2-2-2|-3-3-3-3|-3-3-3-3|--------|---------|
E|--------|--------|--------|--------|--------|--------|-3-3-3-3|-3-3-3-3-|

Pause

Chorus x3
Bride.
G|--------|--------|------------|------------|
D|--------|--------|------------|------------|
A|-3-3-3-3|-3-3-3-3|-10-10-10-10|-10-10-10-10|
E|--------|--------|------------|------------|

Chorus x1

and finish on :
G|---------|
D|---------|
A|---------|
E|-5-------|


| /  slide up
| \  slide down
| h  hammer-on
| p  pull-off
| ~  vibrato
| +  harmonic
| x  Mute note
===============================================================================
            

comments powered by Disqus
↑ Back to top | Happysad Bass for Nie Ma Nieba. Lyrics for acoustic guitar and electric guitar. Tablatures and chords are parodies/interpretations of the original songs. You may use it for private study, scholarship, research or language learning purposes only