» » »

Marihuana Tabs (ver.1)

Artists:  A B C D E F G H I J K L M N O P Q R S T U V W X Y Z # 

Marihuana Tabs (ver.1)

Happysad
Rating:
0/5 (0 votes)

Hard to play? Try these video lessons and learn fast.
                [Riff]
    a    a    a    a    a    a   a
6.--0----0----0----0----0----0---0-----|       
5.--1----1----1----1----1----1---1-----|
4.--2----2----2----2----2----2---2-----|
3.--2----------------------------------|
2.--0----------------------------------|
1.--0----------------------------------|

----^----^----\/---^----\/---^--\/
[bridge] x2
    G    G    G    G    G    G   G
6.--3----3----3----3----3----3---3-----|
5.--0----0----0----0----0----0---0-----|
4.--0----0----0----0----0----0---0-----|
3.--0----------------------------------|
2.--2----------------------------------|
1.--3----------------------------------|

----^----^----\/---^----\/---^--\/

^ - from E2 to E4
\/ - from E4 to E2
            
Hard to play? Try these video lessons and learn fast. | Correct




comments powered by Disqus
↑ Back to top | Tablatures and chords are parodies/interpretations of the original songs. You may use it for private study, scholarship, research or language learning purposes only