» » »

Tart Tart Bass tabs (ver.1)

Artists:  A B C D E F G H I J K L M N O P Q R S T U V W X Y Z # 

Tart Tart Bass tabs (ver.1)

Happy Mondays
Rating:
0/5 (0 votes)

Hard to play? Try these video lessons and learn fast.
                HAPPY MONDAYS - TART TART
(1987)
BASSIST: PAUL RYDER

INTRO/VERSE

E --0---------3h5--0--------3h5--0--------3h5--0---------3h5---|
A -----3-6-3----------3-6-3---------3-6-3---------3-6-3--------|
D -------------------------------------------------------------|
G -------------------------------------------------------------|

E ---------------------------------0--------3h5--0---------3h5--|
A --0---------------0----------------3-6-3----------3-6-3-------|
D -----3-6-3--6h8-----3-6-3--6h8--------------------------------|
G --------------------------------------------------------------|

E ------------------------------|
A ---3-----3--------------------|
D ------------5-----------------|
G ------5-----------0--/5---/7--|

VERSE

E --0-0--------5-5--5---3-0----|X4   -----------------|
A -------3-(0)-----------------|     --3--------------|
D -----------------------------|     -----------------|
G -----------------------------|     -----5-----------|


E --0-0--------5-5--5---3-0----|X4   -----------------|x2
A -------3-(0)-----------------|     --0------------0-|
D -----------------------------|     ----3-6-3--6h8---|
G -----------------------------|     -----------------|

GOODCHESTER

AHHAAHHAHAHAHA
JAH WOBBLE IS GOD
            
Hard to play? Try these video lessons and learn fast. | Correct




comments powered by Disqus
↑ Back to top | Tablatures and chords are parodies/interpretations of the original songs. You may use it for private study, scholarship, research or language learning purposes only