» » »

Step On Bass tabs (ver.1)

Artists:  A B C D E F G H I J K L M N O P Q R S T U V W X Y Z # 

Step On Bass tabs (ver.1)

Happy Mondays
Rating:
0/5 (0 votes)

Hard to play? Try these video lessons and learn fast.
                HAPPY MONDAYS - STEP ON
BASSIST: PAUL RYDER

VERSE

E ----------------------------------|
A --5*-------3-0--0--(0)3-0---5*----|
D ----------------------------------|
G ----------------------------------|

There are some variations here you can find more...
VARIATIONS

E -------------------------------|
A --0-0-0-3---0-0-3--0-0-3-5*----|
D -------------------------------|
G -------------------------------|

VARIATIONS

E -------------------------------|
A --0-0-0-3--0-0-3--0-5*---------|
D -------------------------------|
G -------------------------------|

VARIATIONS

E --------------------------|
A --0-0-0-3---0-3--0-3--5*--|
D --------------------------|
G --------------------------|

BRIDGE/END OF THE VERSE

E    --------5--3-----|
A ...5*--3------------|
D    -----------------|
G    -----------------|

THEN THERE IS THE BREAK WITHOUT BASS...
THEN BEGIN THE VERSE (REPEAT)

FANTASTIC MADCHESTER BASSLINE

-------------DROP ACID NOT BOMBS--------------

JAH WOBBLE IS GOD
            
Hard to play? Try these video lessons and learn fast. | Correct




comments powered by Disqus
↑ Back to top | Tablatures and chords are parodies/interpretations of the original songs. You may use it for private study, scholarship, research or language learning purposes only