» » »

Happy Mondays, Kinky Afro Tabs (ver.1)

Artists:  A B C D E F G H I J K L M N O P Q R S T U V W X Y Z # 

Kinky Afro Tabs (ver.1)

Happy Mondays Tabs
 Rating:
4/5 (4 votes)
Kinky Afro lessons Tabs too difficult? Try these video lessons and learn fast
1
                I decided to work this song out as the tabs online for this are just terrible!!!!!!

Listen to the song for how the Rhythm Guitar goes

Rhythm Guitar:
E --6--6-6-6--6--8----------------------------|
B --6--6-6-6--6--6---8--8-8--8-8-8-8----------|
G --7--7-7-7--7--7---7--7-7--7-7-7-7----------|
D --8--8-8-8--8--8---8--8-8--8-8-8-8----------|
A --------------------------------------------|
E --------------------------------------------|

Main Riff:
E ----0----0---------------0-----------------|
B -------------------------------------------|
G --5^---5----5---0------3----3--------------|
D ---------------------5--------5------------|
A -------------------3-----------------------|
E -------------------------------------------|

After 'Yipee yippee...' play this
E --------------------------------------------|
B --5---6----8---8---8--8---------------------|
G --7^--8^---10^-10^-10-10^-------------------|
D --------------------------------------------|
A --------------------------------------------|
E --------------------------------------------|

every so often this is played

E ---3--3-------------------------------------|
B ---3--3---3-3-------------------------------|
G ----------3-3-------------------------------|
D --------------------------------------------| x4
A --------------------------------------------|
E --------------------------------------------|

Solo

E --12-12-12-12-12-12-12-12-12-12---10--10-10-|
B --13-13-13-13-13-13-13-13-13-13---11--11-11-|
G --15-15-15-15-15-15-15-15-15-15---12--12-12-|
D --------------------------------------------|
A --------------------------------------------| x4
E --------------------------------------------|
            
Submit corrections

comments powered by Disqus
↑ Back to top | Happy Mondays Tabs for Kinky Afro. Lyrics for acoustic guitar and electric guitar. 1 Tablatures and chords are parodies/interpretations of the original songs. You may use it for private study, scholarship, research or language learning purposes only