» » »

Happy Mondays, Gods Cop Tabs (ver.1)

Artists:  A B C D E F G H I J K L M N O P Q R S T U V W X Y Z # 

Gods Cop Tabs (ver.1)

Happy Mondays Tabs
 Rating:
4/5 (4 votes)
Gods Cop lessons Tabs too difficult? Try these video lessons and learn fast
1
                YEAR: 1990

TUNING: Standard (e,B,G,D,A,E)

Second track on the Mondays' seminal Pills 'N' Thrills And Bellyaches. This song 
a slider to play properly.

INTRO/BRIDGE

Place your slider very looseley on these frets...

e|11~11/14~14/16------------------------------------|
B|11~11/14~14/16------------------------------------|
G|11~11/14~14/16------------------------------------|
D|--------------------------------------------------|
A|--------------------------------------------------|
E|--------------------------------------------------|

...and now use your fingers.

e|5-4-3-1-------------------------------------------|
B|5-4-3-1-3-6-3-------------------------------------|
G|--------2-4-2-------------------------------------|
D|--------------------------------------------------|
A|--------------------------------------------------|
E|--------------------------------------------------|

CHORUS
     D                       Em/G
e|---2-------------------------0--------------------|
B|---3-------------------------0--------------------|
G|---2-------------------------0--------------------|
D|---0-------------------------2--------------------|
A|-----------------------------2--------------------|
E|-----------------------------3--------------------|

SECOND VERSE/OUTRO

Again, play these notes by placing your slider loosely...

e|14-14/11~-----------------------------------------|
B|14-14/11~-----------------------------------------|
G|14-14/11~-----------------------------------------|
D|--------------------------------------------------|
A|--------------------------------------------------|
E|--------------------------------------------------|

...now use your fingers.

e|--------------------------------------------------|
B|1/3-3---------------------------------------------|
G|0/2-2---------------------------------------------|
D|--------------------------------------------------|
A|--------------------------------------------------|
E|--------------------------------------------------|

And there you have it. A very fun song once you get the sound right. Any comments you 
            
Submit corrections

comments powered by Disqus
↑ Back to top | Happy Mondays Tabs for Gods Cop. Lyrics for acoustic guitar and electric guitar. 1 Tablatures and chords are parodies/interpretations of the original songs. You may use it for private study, scholarship, research or language learning purposes only