» » »

Happy Campers, Borderlines Tabs (ver.1)

Artists:  A B C D E F G H I J K L M N O P Q R S T U V W X Y Z # 

Borderlines Tabs (ver.1)

Happy Campers Tabs
 Rating:
4/5 (4 votes)
Borderlines lessons Tabs too difficult? Try these video lessons and learn fast
1
                Band:Happy Campers
Album:S'more Core

Note:I know the song isn't finish but that's all I know hope anyone can finish it


Intro: 1x   ~=let it ring
e:------------------------|
b:------------------------|
g:------------------------|
d:-9~----9~-----9-9-9-9---|
a:-9~----9~-----9-9-9-9---| 
e:-7~----7~-----7-7-7-7---|

pre-verse: 4x
e:----------------------------|
b:----------------------------|
g:----------------------------|
d:--9-----12-11-7----12-11-9--|
a:--9-----12-11-7----12-11-9--|
e:--7-----10-9--5----10-9--7--|

Verse: 1x 
e:----------------------------------------------------------------------------------------------------|
b:----------------------------------------------------------------------------------------------------|
g:----------------------------------------------------------------------------------------------------|
d:--9----12----7---11-12-11-9--7--5---7-7---9----12----7---11-12-11--9--7--5---5-5-7-5-4--------------|
a:--9----12----7---11-12-11-9--7--5---7-7---9----12----7---11-12-11--9--7--5---5-5-7-5-4--pick-slide--|
e:--7----10----5----9-10-9--7--5--3---5-5---7----10----5----9-10--9--7--5--3---3-3-5-3-2--------------|

Chorus: 2x
e:----------------------------------------------------------------|
b:----------------------------------------------------------------|
g:--------------1111-11-111111------------------------------------|
d:--99-9-999----1111-11-111111---1111-11-111111-12-12-12-111111---|
a:--99-9-999----9-9--9--9-9-9----1111-11-111111-12-12-12-111111---|
e:--77-7-777---------------------9-9--9--9-9-9--10-10-10-9-9-9----|

Pre-verse 4x, Verse 1x, Chorus 2x

Bridge: 4x  ~=let it ring  ()=at 4th time
e:------------------------------|
b:------------------------------|
g:--99-9--------------------(9~)|
d:--99-9-99-9-1212-12-77-7--(9~)|
a:--77-7-99-9-1212-12-77-7--(7~)|
e:-------77-7-1010-10-55-5------|

Intro 1x, 
            
Submit corrections

comments powered by Disqus
↑ Back to top | Happy Campers Tabs for Borderlines. Lyrics for acoustic guitar and electric guitar. 1 Tablatures and chords are parodies/interpretations of the original songs. You may use it for private study, scholarship, research or language learning purposes only