» » »

Hanzel Und Gretyl, Unterstutzung 8 Tabs (ver.1)

Artists:  A B C D E F G H I J K L M N O P Q R S T U V W X Y Z # 

Unterstutzung 8 Tabs (ver.1)

Hanzel Und Gretyl Tabs
 Rating:
4/5 (4 votes)
Unterstutzung 8 lessons Tabs too difficult? Try these video lessons and learn fast
1
                "(7)
-----------------------------------------------------------------------------
                             UNTERSTUTZUNG 87 – Hanzel und Gretyl
-----------------------------------------------------------------------------

Tuning: Drop C
Intro/ Verse:
D|----------------------------------------------------------------------------|
A|----------------------------------------------------------------------------|
F|----7-------------8--7--7---------10--7--7--------5/7--777----8/10--10--10--|
C|----7----------8--7--7------------10--5--5--------5/7--777----8/10--10--10--|
G|----5-xxxx-----6--5--5-xxxx-------8---5--5--------3/5--555----6/8 - 8 -  8--|
C|---xxxx----------------xxxx-------------------------------------------------|
Chorus:
D|---------------------------------------------------------------------------|
A|---------------------------------------------------------------------------|
F|---------------------------------------------------------------------------|
C|----3----------------------------------------------------------------------|
G|----3-------------------6-7--6-----6--7--6---------------------------------|
C|----3----------------------------------------------------------------------|
Bridge:
D|---------------------------------------------------------------------------|
A|---------------------------------------------------------------------------|
F|---------------------------------------------------------------------------|
C|---------------------------------------------------------------------------|
G|-----6/7\6----10\6-5----6/7\6--10\6--5-------------------------------------|
C|---------------------------------------------------------------------------|
Verse
Chorus
Solo(this is the best I could come up with):
D|-------------------|
A|-------------------|
F|-------------------|
C|-------------------|
G|-----6-5-5--6-5-5--| (repeats a lot)
C|-----6-5-5--6-5-5--|

D|---------------------------------------------------------------------------|
A|---------------------------------------------------------------------------|
F|-----10--7--7--5--7--------------10--7--7--5--7---------10--7--7--5--7-----|
C|---------------------------------------------------------------------------|
G|---------------------------------------------------------------------------|
C|---------------------------------------------------------------------------|

D|----------------------------------------------------------------------------|
A|----------------------------------------------------------------------------|
F|---3/5-555—5/7-----(X2)----- 7---5--3--5--7---10--7------5---3--5--7--10----|
C|----------------------------------------------------------------------------|
G|----------------------------------------------------------------------------|
C|----------------------------------------------------------------------------|

D|---------------------------------------------------------------------------|
A|---------------------------------------------------------------------------|
F|--------5--3--5--7--10--7--10---3/5----10---7------------------------------|
C|---------------------------------------------------------------------------|
G|---------------------------------------------------------------------------|
C|---------------------------------------------------------------------------|

Chorus
Bridge


************************************

| /   slide up
| \   slide down
| h   hammer-on
| p   pull-off
| ~   vibrato
| +   harmonic
| x   Mute note
| b   Bend
| pb  Pre-bend
| br  Bend release
| pbr Pre-bend release
| brb Bend release bend
"            
Submit corrections

comments powered by Disqus
↑ Back to top | Hanzel Und Gretyl Tabs for Unterstutzung 8. Lyrics for acoustic guitar and electric guitar. 1 Tablatures and chords are parodies/interpretations of the original songs. You may use it for private study, scholarship, research or language learning purposes only