» » »

Hanzel Und Gretyl, Purity Tabs (ver.1)

Artists:  A B C D E F G H I J K L M N O P Q R S T U V W X Y Z # 

Purity Tabs (ver.1)

Hanzel Und Gretyl Tabs
 Rating:
4.3/5 (6 votes)
Purity lessons Tabs too difficult? Try these video lessons and learn fast
                -------------------------------------------------------------------------------
-------------------------------------------------------------------------------

Tuning: Dropped C

Intro

Pre Bend the first note then slowly bend back to original position and vibrato (you'll 
the idea when you play it)


x4

d|-------------|
a|-------------|
f|7^-(7)~~~~~--|
c|-------------|
g|-------------|
c|-------------|

Verse 1

d|---------------------------------------|
a|---------------------------------------|
f|2-2/5-5/7-7/9-9/12-12/14-14/17-14~~~~~-|
c|---------------------------------------|
g|---------------------------------------|
c|---------------------------------------|

Verse 2

(Full bend on 16)
d|---------------------------------------------|
a|---------------------------------------------|
f|2-2/5-5/7-7/9-9/12-12/14-14/17-16^-14~~~~~~~-|
c|---------------------------------------------|
g|---------------------------------------------|
c|---------------------------------------------|

Verse 3

d|---------------------------------------|
a|3-3/6-6/8-8/10-10/13-13/15-15/18-13~~~~|
f|---------------------------------------|
c|---------------------------------------|
g|---------------------------------------|
c|---------------------------------------|

Verse 4

(Full bend on 17)
d|---------------------------------------------|
a|3-3/6-6/8-8/10-10/13-13/15-15/18-17^-13~~~~~~|
f|---------------------------------------------|
c|---------------------------------------------|
g|---------------------------------------------|
c|---------------------------------------------|

Chorus

Guitar 1

x6

d|---------------------------------------------------------------------------|
a|---------------------------------------------------------------------------|
f|---------------------------------------------------------------------------|
c|0----0------0----0----0------0----3----3------3----3----3------3-----------|
g|0----0------0----0----0------0----3----3------3----3----3------3-----------|
c|0-00-0-0000-0-00-0-00-0-0000-0-00-3-33-3-3333-3-33-3-33-3-3333-3-33--------|
pm  --   ----   --   --   ----   --   --   ----   --   --   ----   --
Guitar 2 plays Verses in same order on this chorus over guitar 1, 4 times then play this.

(not 100% about this bit, i couldn't tab it too well)

d|------------------------------------------------------------------------------|
a|-10^-10-~~~~10/13~~~10~~~~----------------------------------------------------|
f|----------------------------10p9-10p9-10p9-10p9-10p9-10p9-10p9-10p9-9h10------|
c|------------------------------------------------------------------------------|
g|------------------------------------------------------------------------------|
c|------------------------------------------------------------------------------|

d|------------------------------------------------------------------------------|
a|-13^~~~~~~10-~~~~10/13~~------------------------------------------------------|
f|----------------------------10p9-10p9-10p9-10p9-10p9-10p9-10p9-10p9-9h10------|
c|------------------------------------------------------------------------------|
g|------------------------------------------------------------------------------|
c|------------------------------------------------------------------------------|

x4

d|-------------|
a|-------------|
f|7^-(7)~~~~~--|
c|-------------|
g|-------------|
c|-------------|

x4
Guitar 1

Chorus

d|---------------------------------------------------------------------------|
a|---------------------------------------------------------------------------|
f|---------------------------------------------------------------------------|
c|0----0------0----0----0------0----3----3------3----3----3------3-----------|
g|0----0------0----0----0------0----3----3------3----3----3------3-----------|
c|0-00-0-0000-0-00-0-00-0-0000-0-00-3-33-3-3333-3-33-3-33-3-3333-3-33--------|
pm  --   ----   --   --   ----   --   --   ----   --   --   ----   --
x1

Guitar 2

Verse 1

d|---------------------------------------|
a|---------------------------------------|
f|2-2/5-5/7-7/9-9/12-12/14-14/17-14~~~~~-|
c|---------------------------------------|
g|---------------------------------------|
c|---------------------------------------|
Verse 2

d|---------------------------------------------|
a|---------------------------------------------|
f|2-2/5-5/7-7/9-9/12-12/14-14/17-16^-14~~~~~~~-|
c|---------------------------------------------|
g|---------------------------------------------|
c|---------------------------------------------|

Verse 3
d|---------------------------------------|
a|3-3/6-6/8-8/10-10/13-13/15-15/18-13~~~~|
f|---------------------------------------|
c|---------------------------------------|
g|---------------------------------------|
c|---------------------------------------|

Verse 4
d|---------------------------------------------|
a|3-3/6-6/8-8/10-10/13-13/15-15/18-17^-13~~~~~~|
f|---------------------------------------------|
c|---------------------------------------------|
g|---------------------------------------------|
c|---------------------------------------------|

Hope you like this tab, no one has tabbed it yet and i really wanted to play
it so i gave it my best shot ;) There is a 3rd guitar on some parts which i haven't 
hopefully someone will help me on that bit.

Cheers

|()   Hold Note
| /  slide up
| \  slide down
| h  hammer-on
| p  pull-off
| ~  vibrato
| +  harmonic
| x  Mute note
===============================================================================
            
Submit corrections

comments powered by Disqus
↑ Back to top | Hanzel Und Gretyl Tabs for Purity. Lyrics for acoustic guitar and electric guitar. Tablatures and chords are parodies/interpretations of the original songs. You may use it for private study, scholarship, research or language learning purposes only