» » »

Hanzel Und Gretyl, Loud Und Proud Tabs (ver.1)

Artists:  A B C D E F G H I J K L M N O P Q R S T U V W X Y Z # 

Loud Und Proud Tabs (ver.1)

Hanzel Und Gretyl Tabs
 Rating:
4/5 (4 votes)
Loud Und Proud lessons Tabs too difficult? Try these video lessons and learn fast
                Note: Not made by me, just sharing


Legend:
h = hammer-on
p = pull-off
b = bend to note
rb= release bend
/ = slide to fret
~ = vibrato
PM... = palm-muting of dotted sections
x = Dead Note (Palm Muted Note from before)




Tuning: Drop C




Riff 1

D-----------------------------------------------------------------------|
A-----------------------------------------------------------------------|
F-----------------------------------------------------------------------|
C--8/7-x-7--7-6-x-6--6-5--x-5--5-4-3-2----------------------------------|  x4 
G--6/5-x-5--5/4-x-4--4/3--x-3--3/2-1-0----------------------------------|
C-----------------------------------------------------------------------|



Riff 1 x2
               

Riff 2

D-----------------------------------------------------------------------|
A-----------------------------------------------------------------------|
F-----------------------------------------------------------------------|
C---5-5---5b6---------5-5---5b6------5-5---5b6---------5-5---5b6--------|  x2
G---5-5---5b6---------5-5---5b6------5-5---5b6---------5-5---5b6--------|
C---5-5---5b6---------5-5---5b6------5-5---5b6---------5-5---5b6--------|


Riff 1  x2



Riff 2



Riff 3 (With Riff 1 Underneath)


D-----------------------------------------------------------------------|
A-----------------------------------------------------------------------|
F-----------------------------------------------------------------8h9p8-|
C--7--0-0--6--0-0--7--0-0-6-0-0-6--0--6-0--7--0-0--6--0-0--7--0-0-------|  x4
G-----------------------------------------------------------------------|
C-----------------------------------------------------------------------|
                                                       (Slight Squeal on 8 +9)


Riff 2 


Riff 1 


"Slow" Bit


Riff 1 x2


Riff 2


Riff 1


Riff 2



END
            
Submit corrections

comments powered by Disqus
↑ Back to top | Hanzel Und Gretyl Tabs for Loud Und Proud. Lyrics for acoustic guitar and electric guitar. Tablatures and chords are parodies/interpretations of the original songs. You may use it for private study, scholarship, research or language learning purposes only