» » »

Hanzel Und Gretyl, Kaizerreich Tabs (ver.1)

Artists:  A B C D E F G H I J K L M N O P Q R S T U V W X Y Z # 

Kaizerreich Tabs (ver.1)

Hanzel Und Gretyl Tabs
 Rating:
4/5 (4 votes)
Kaizerreich lessons Tabs too difficult? Try these video lessons and learn fast
                Note: Not made by me, just sharing


Legend:
h = hammer-on
p = pull-off
b = bend to note
rb= release bend
/ = slide to fret
~ = vibrato
PM... = palm-muting of dotted sections
x = pick scr*pe




Tuning: Drop C




Riff 1

D-----------------------------------------------------------------------|
A-----------------------------------------------------------------------|
F-----------------------------------------------------------------------|
C--0-0-0-0-0-0-0-0-6-6-6-6-6-6-6-6-5-5-5-5-5-5-5-5-3-3-3-3-3-3-3-3------|x3   
G--0-0-0-0-0-0-0-0-6-6-6-6-6-6-6-6-5-5-5-5-5-5-5-5-3-3-3-3-3-3-3-3------|
C--0-0-0-0-0-0-0-0-6-6-6-6-6-6-6-6-5-5-5-5-5-5-5-5-3-3-3-3-3-3-3-3------|

On fourth Time:

D-----------------------------------------------------------------------|
A-----------------------------------------------------------------------|
F-----------------------------------------------------------------------|
C--0-0-0-0-0-0-0-0-6-6-6-6-6-6-6-6-5------------------------------------|x3   
G--0-0-0-0-0-0-0-0-6-6-6-6-6-6-6-6-5------------------------------------|
C--0-0-0-0-0-0-0-0-6-6-6-6-6-6-6-6-5------------------------------------|


Riff 2


D-----------------------------------------------------------------------|
A-----------------------------------------------------------------------|
F-----------------------------------------------------------------------|
C-0--------1--3-4-3------0-------0--1-3-1-------------------------------|x4   
G-0--------1--3-4-3------0-------0--1-3-1-------------------------------|
C-0--------1--3-4-3------0-------0--1-3-1-------------------------------|


Riff 3


D-----------------------------------------------------------------------|
A-----------------------------------------------------------------------|
F-----------4-----------------------------------------------------------|
C--3--3-3---4---3--3-3--2/4--0--0-0--1--4--1--0--0-0--1--3--1-----------| x2  
G--3--3-3---2---3--3-3--0/2--0--0-0--1--4--1--0--0-0--1--3--1-----------|
C--3--3-3-------3--3-3-------0--0-0--1--4--1--0--0-0--1--3--1-----------|


Silence



Riff 4


D-----------------------------------------------------------------------|
A-----------------------------------------------------------------------|
F------------------7--5---8-7----7-8-5--5--5h7p-------------------------|
C------------7-6--------------------------------6~----------------------|  
G--5---6-5--------------------------------------------------------------|
C----0-----0-----0------0-----------------------------------------------|
                                              (Trem Pedal on last 6)


Riff 1

Riff 2

Riff 3

Silence

Riff 4

Riff 1

Riff 2

Riff 3

Riff 4 x2

Riff 1 x2
            
Submit corrections

comments powered by Disqus
↑ Back to top | Hanzel Und Gretyl Tabs for Kaizerreich. Lyrics for acoustic guitar and electric guitar. Tablatures and chords are parodies/interpretations of the original songs. You may use it for private study, scholarship, research or language learning purposes only