» » »

Ich Bin Uber Alles Tabs (ver.1)

Artists:  A B C D E F G H I J K L M N O P Q R S T U V W X Y Z # 

Ich Bin Uber Alles Tabs (ver.1)

Hanzel Und Gretyl
Rating:
5/5 (4 votes)

Hard to play? Try these video lessons and learn fast.
                This song is an awesome song. My band always has fun playing it at practices! I hope you 
it just as well as we do!

The intro is the same thing as the chorus and verse. The Verse is just palm muted.

Tuning
CGCFAD

Intro/Chorus
D|--------------------------------------------------------------------|
A|--------------------------------------------------------------------|
F|--------------------------------------------------------------------|
C|-060--00--060--00--060--00--131--00---------------------------------|
G|-060--00--060--00--060--00--131--00--(X 3)--------------------------|
C|-060--00--060--00--060--00--131--00---------------------------------|

At the end of the Coda there is a little lead fill
(Fill)
D|-----------------------------------------------------------------------|
A|-----------------------------------------------------------------------|
F|-----------------------------------------------------------------------|
C|--------00-------------------------------------------------------------|
G|--------00-------------------------------------------------------------|
C|555580--00-------------------------------------------------------------|
  *****

The verse is the same thing but its all palm muted.

Still working on the solo, it doesnt sound just right; this is what i have so far

D|----------------------------------------------------------------------|
A|----------------------------------------------------------------------|
F|----------------------------------------------------------------------|
C|-/5-3-------/5-3--------------/7-5-------/7-5---/5-3--------/5-3------|
G|------/7-5-------/7-5---/7-5-------/7-5---------------/7-5-------/7-5-|
C|----------------------------------------------------------------------|

D|----------------------------------------------------------------------|
A|----------------------------------------------------------------------|
F|----------------------------------------------------------------------|
C|------/8-7--------/8-7------------------------------------------------|
G|-/7-5------/7-5-------------------------------------------------------|
C|----------------------------------------------------------------------|

Sorry still trying to figure out the Rhythm part of the solo. :'(


Outro
D|----------------------------------------------------------------------|
A|----------------------------------------------------------------------|
F|----------------------------------------------------------------------|
C|-060---060---060---1-0------------------------------------------------|
G|-060---060---060---1-0-(X 3)------------------------------------------|
C|-060---060---060---1-0------------------------------------------------|


plz rate. Send me comments.

Loopy is f**king awesome!
            
Hard to play? Try these video lessons and learn fast. | Correct




comments powered by Disqus
↑ Back to top | Tablatures and chords are parodies/interpretations of the original songs. You may use it for private study, scholarship, research or language learning purposes only