» » »

Holy Shiza Tabs (ver.1)

Artists:  A B C D E F G H I J K L M N O P Q R S T U V W X Y Z # 

Holy Shiza Tabs (ver.1)

Hanzel Und Gretyl
Rating:
0/5 (0 votes)

Hard to play? Try these video lessons and learn fast.
                                      Hanzel Und Gretyl
                        Holy Shiza!

Hi! I made this tab, maybe the best song frum Born To Be Heiled. Next month i'll
get my first electric guitar, if you want, i can make a video lesson. In this
time, im working on Blitzkriegerz Hellriderz, and still working on Holy Shiza's
solo.      Balázs Hencz

Tuning: Drop C      *=palm mute.

The intro starts something like this. 0:06
D------------------------------|
A------------------------------|
F------------------------------|  3x
C--------1------3------6----5--|
G--------1------3------6----5--|
C--0-0-0-1--0-0-3--0-0-6--0-5--|
   * * *    * *    * *    *
D------------------------------|
A------------------------------|
F------------------------------|  4th time.
C--------1------0--------------|
G--------1------0--------------|
C--0-0-0-1--0-0-0--------------|

Verse 0:19
D----------------------------------|
A----------------------------------|
F----------------------------------|  2x
C--77777777777777778888888888888888
G--55555555555555556666666666666666
C----------------------------------

D------------------------------|
A------------------------------|
F------------------------------|
C--0------0----------0------0--|  \
G--0------0----------0------0--|   \
C--0--0-0-0--0-0-0-0-0--0-0-0--|    \
      * *    * * * *    * *          2x
D-------------------------------|    /
A-------------------------------|   /
F-------------------------------|  /
C--1------1----------1--1---3---|
G--1------1----------1--1---3---|
C--1--1-1-1--1-1-1-1-1--1---3---|
      * *    * * * *

Chorus (Satan rides with us, Holy Shiza!) Chorus 2x!! 0:43

D------------------------------|
A------------------------------|
F------------------------------|
C--6-----8--5-----3------------|
G--6-----8--5-----3------------|
C--6-----8--5-----3------------|
(The chorus is alternative. you can play the intro riff, or:)

D------------------------------|
A------------------------------|
F------------------------------|
C--------1------3------6----5--|
G--------1------3------6----5--|
C--0000001-000003-000006-0005--|
   ******  *****  *****  ***

-Verse: 0:55
-Chorus: 1:19
-Solo: 1:44 I still working on the solo. The rhythym, bass part of the solo is the verse.
-Chorus: 2:09

Outro: 2:20. (Something like this. Not 100% correct. Hard to hear.

D-------------------------------|
A-------------------------------|
F-------------------------------|
C---------------------------6-5-|   Many Times.
G--5--6-5-3-5-5-5-6-5-5-5-5-----|
C-------------------------------|

           Thank you! Bye!
            
Hard to play? Try these video lessons and learn fast. | Correct




comments powered by Disqus
↑ Back to top | Tablatures and chords are parodies/interpretations of the original songs. You may use it for private study, scholarship, research or language learning purposes only