» » »

Hammerzeit Tabs (ver.1)

Artists:  A B C D E F G H I J K L M N O P Q R S T U V W X Y Z # 

Hammerzeit Tabs (ver.1)

Hanzel Und Gretyl
Rating:
0/5 (0 votes)

Hard to play? Try these video lessons and learn fast.
                -----------------------------------------------------------------------------
-----------------------------------------------------------------------------

Tuning: Drop C

Intro:

D|---------------------------------------------------------------------|
A|---------------------------------------------------------------------|
F|---------------------------------------------------------------------|
C|-00-66-5-33----------------------------------------------------------|
G|-00-66-5-33----------------------------------------------------------|
C|-00-66-5-33----------------------------------------------------------|


Verse:

D|---------------------------------------------------------------------|
A|---------------------------------------------------------------------|
F|---------------------------------------------------------------------|
C|-0-00-00-00-6666-----------------------------------------------------|
G|-0-00-00-00-6666-----------------------------------------------------|
C|-0-00-00-00-6666-----------------------------------------------------|

Intro
Verse

Chorus:
D|---------------------------------------------------------------------------|
A|---------------------------------------------------------------------------|
F|---------------------------------------------------------------------------|
C|--00--66-5--3333-5555------------------------------------------------------|
G|--00--66-5--3333-5555------------------------------------------------------|
C|--00--66-5--3333-5555------------------------------------------------------|

Solo: (not 100% sure, but pretty close)
D|---------------------------------------------------------------------------|
A|---------------------------------------------------------------------------|
F|--13/14--12/13\12--14/15--14/15\14--12--12/13\12--10/12\10--9--9/10\9------|
C|---------------------------------------------------------------------------|
G|---------------------------------------------------------------------------|
C|---------------------------------------------------------------------------|

D|---------------------------------------------------------------------------|
A|---------------------------------------------------------------------------|
F|--9\-8-7--5----13/14--12/13\12--14/15--14/15\14--12--12/13\12--10/12\10----|
C|---------------------------------------------------------------------------|
G|---------------------------------------------------------------------------|
C|---------------------------------------------------------------------------|

D|---------------------------------------------------------------------------|
A|---------------------------------------------------------------------------|
F|--9--9/10\9--9\8-----------------------------------------------------------|
C|---------------------------------------------------------------------------|
G|---------------------------------------------------------------------------|
C|---------------------------------------------------------------------------|

Chorus
Verse
Chorus
************************************

| /   slide up
| \   slide down
| h   hammer-on
| p   pull-off
| ~   vibrato
| +   harmonic
| x   Mute note
| b   Bend
| pb  Pre-bend
| br  Bend release
| pbr Pre-bend release
| brb Bend release bend

************************************
            
Hard to play? Try these video lessons and learn fast. | Correct




comments powered by Disqus
↑ Back to top | Tablatures and chords are parodies/interpretations of the original songs. You may use it for private study, scholarship, research or language learning purposes only