» » »

Hallalujah Tabs (ver.1)

Artists:  A B C D E F G H I J K L M N O P Q R S T U V W X Y Z # 

Hallalujah Tabs (ver.1)

Hanzel Und Gretyl
Rating:
0/5 (0 votes)

Tabs too difficult? Try these video lessons and learn fast.
                
Legend:
h = hammer-on
p = pull-off
b = bend to note
rb= release bend
/ = slide to fret
~ = vibrato
PM... = palm-muting of dotted sections
x = pick scr*pe




Tuning: Drop C


Theres only 2 riffs to the song, and they are the same just the 2nd one
higher. Listen to the song and you'll get the structure straight away.



Riff 1

D--------------------------------------------------------------------|
A--------------------------------------------------------------------|
F--------------------------------------------------------------------|
C--2--2-2--2--0--3--2--2-2--2--5--3--3\2222--2--0--3--2--2-2--2--5--3|
G--2--2-2--2--0--3--2--2-2--2--5--3--3\2222--2--0--3--2--2-2--2--5--3|
C--2--2-2--2--0--3--2--2-2--2--5--3--3\2222--2--0--3--2--2-2--2--5--3|
pm    . .              . .             ....              . .


Riff 2

D-------------------------------------------------------------------------|
A-------------------------------------------------------------------------|
F-------------------------------------------------------------------------|
C9--9-9--9--7--10--9--9-9--9--12--10--10\9999--9--7--10--9--9-9--9--12--10|
G9--9-9--9--7--10--9--9-9--9--12--10--10\9999--9--7--10--9--9-9--9--12--10|
C9--9-9--9--7--10--9--9-9--9--12--10--10\9999--9--7--10--9--9-9--9--12--10|
pm  . .               . .                ....               . .
            
Tabs too difficult? Try these video lessons and learn fast.




comments powered by Disqus
↑ Back to top | Tablatures and chords are parodies/interpretations of the original songs. You may use it for private study, scholarship, research or language learning purposes only