» » »

Fukken Ber Death Party Bass tabs (ver.1)

Artists:  A B C D E F G H I J K L M N O P Q R S T U V W X Y Z # 

Fukken Ber Death Party Bass tabs (ver.1)

Hanzel Und Gretyl
Rating:
0/5 (0 votes)

Hard to play? Try these video lessons and learn fast.
                -------------------------------------------------------------------------------
		Fukken Uber Death Party - Hanzel Und Gretyl
-------------------------------------------------------------------------------


Tuning:Drop c (C,G,C,F)
Main Riff
F|-------------------------------------------------------|
C|-------------------------------------------------------|
G|-----5-65-3h5-65-----5-65-3h5-6------------------------|
C|----0-0--0---0------0-0--0---0-563434------------------|

Riff 2
F|-------------------------------------------------------------|
C|-------------------------------------------------------------|
G|-------------------------------1-----------------------------|(Palm mute
C|--000000000000011-0000000000000-10-000000000000011-00000000~-| open notes)
Riff 3
F|-------------------------------------------------------------|
C|-------------------------------------------------------------|
G|-------------------------------------------------------------|(Palm mute
C|--00000----00001----00000----00001---------------------------| all)

Pre Solo
F|---------------------|
C|---------------------|
G|---------------------|(Palm mute)
C|--00-00-00-00--------|

Solo
F|-------------------------------------------------------|
C|-------------------------------------------------------|
G|-----5-65-3h5-65-----5-65-3h5-6------------------------|
C|----0-0--0---0------0-0--0---0-563434------------------|

Riff 4
F|-------------------------------------------------------|
C|-------------------------------------------------------|
G|---------------------5-65-3h5-6------------------------|
C|--0000000000000101--0-0--0---0-563434------------------|

End
F|-------------------------------------------------------------|
C|-------------------------------------------------------------|
G|-------------------------------------------------------------|(Palm mute
C|--00000----00001----00000----00001---------------------------| all)

it sounds absolutly fine to me but if there are any suggestions please let me know
            
Hard to play? Try these video lessons and learn fast. | Correct




comments powered by Disqus
↑ Back to top | Tablatures and chords are parodies/interpretations of the original songs. You may use it for private study, scholarship, research or language learning purposes only