» » »

Hanzel Und Gretyl, Fikk Dich Mit Feuer Tabs (ver.1)

Artists:  A B C D E F G H I J K L M N O P Q R S T U V W X Y Z # 

Fikk Dich Mit Feuer Tabs (ver.1)

Hanzel Und Gretyl Tabs
 Rating:
4/5 (4 votes)
Fikk Dich Mit Feuer lessons Tabs too difficult? Try these video lessons and learn fast
1
                
Legend:
h = hammer-on
p = pull-off
b = bend to note
rb= release bend
/ = slide to fret
~ = vibrato
PM... = palm-muting of dotted sections
x = pick scr*pe

Tuning: Drop C


INTRO/VERSE

D-------------------------------       
A-------------------------------
F-------------------------------
C----12--0-0-0-0-0-0-3-0-0-5-0-0
G----12--0-0-0-0-0-0-3-0-0-5-0-0
C----12--0-0-0-0-0-0-3-0-0-5-0-0
pm       . . . . . .   . .   . .


                                      
D-------------------------------
A-------------------------------
F-------------------------------
C-13-12--0-0-0-0-0-0-3-0-0-5-0-0  x11  (On this bit, on the twelfth time you play it,
G-13-12--0-0-0-0-0-0-3-0-0-5-0-0        you don't play the last two 0's, if you listen
C-13-12--0-0-0-0-0-0-3-0-0-5-0-0        to the track, you'll know what I mean)
pm       . . . . . .   . .   . .




Chorus
D-------------------------------       
A-------------------------------
F-------------------------------
C-600600606----3-3-3-3--5-5-5-5-   x4  (Listen to the song for timings)
G-600600606----3-3-3-3--5-5-5-5-        
C-600600606----3-3-3-3--5-5-5-5-




Verse

D-------------------------------       
A-------------------------------
F-------------------------------
C-13-12--0-0-0-0-0-0-3-0-0-5-0-0  x12  (On this bit, on the twelfth time you play it,
G-13-12--0-0-0-0-0-0-3-0-0-5-0-0        you don't play the last two 0's, if you listen
C-13-12--0-0-0-0-0-0-3-0-0-5-0-0        to the track, you'll know what I mean)
pm       . . . . . .   . .   . .




Chorus
D-------------------------------       
A-------------------------------
F-------------------------------
C-600600606----3-3-3-3--5-5-5-5-   x4  (Listen to the song for timings)
G-600600606----3-3-3-3--5-5-5-5-        
C-600600606----3-3-3-3--5-5-5-5-



Post-Chorus

D-------------------------------       
A-------------------------------
F-------------------------------
C-0-3-2-0--4-3-2-0-0------------   x3      \
G-0-3-2-0--4-3-2-0-0------------            | 
C-0-3-2-0--4-3-2-0-0------------            |
                                             X2

D-------------------------------            |
A-------------------------------            |
F-------------------------------           /
C-1-1-1-1-1-1-1-1---------------   
G-1-1-1-1-1-1-1-1---------------    
C-1-1-1-1-1-1-1-1---------------




SOLO (Played OVer Verse)

D----------------------------------------     
A----------------------------------------
F--7b8rb7---------------7b8rb7-----------
C-------------7b8rb7--------------7b8rb7-            (These bends are loooong)
G----------------------------------------
C----------------------------------------

D-----------------------------------------------------------------------
A-----------------------------------------------------------------------
F--5h6p5h6p5h6p5h6p5h6p5h6p5h6p5h6p5h6p5h6p5h6p5h6p5h6p5h6p5h6p5h6p0----   (I'm not sure how many there is of the hammers
C-----------------------------------------------------------------------    and pull offs but just match it to the song)
G-----------------------------------------------------------------------
C-----------------------------------------------------------------------

D----------------------------------------     
A--9b999999999999rb999-------------------
F------------------------7---------------
C----------------------------------------      
G----------------------------------------
C----------------------------------------





Chorus
D-------------------------------       
A-------------------------------
F-------------------------------
C-600600606----3-3-3-3--5-5-5-5-   x4  (Listen to the song for timings)
G-600600606----3-3-3-3--5-5-5-5-        
C-600600606----3-3-3-3--5-5-5-5-





Post-Chorus

D-------------------------------       
A-------------------------------
F-------------------------------
C-0-3-2-0--4-3-2-0-0------------   x3      \
G-0-3-2-0--4-3-2-0-0------------            | 
C-0-3-2-0--4-3-2-0-0------------            |
                                             X2         (On the Second time, you stop after the first fret)

D-------------------------------            |
A-------------------------------            |
F-------------------------------           /
C-1-1-1-1-1-1-1-1---------------   
G-1-1-1-1-1-1-1-1---------------    
C-1-1-1-1-1-1-1-1---------------







Middle 8

Chorus
D------------------------------------      
A------------------------------------
F------------------------------------
C--4--2--0-0-0-0---8--3--0-0-0-0-----   x8
G--4--2--0-0-0-0---8--3--0-0-0-0-----       
C--4--2--0-0-0-0---8--3--0-0-0-0-----





Post-Chorus

D-------------------------------       
A-------------------------------
F-------------------------------
C-0-3-2-0--4-3-2-0-0------------   x3      \
G-0-3-2-0--4-3-2-0-0------------            | 
C-0-3-2-0--4-3-2-0-0------------            |
                                             X2         (On the Second time, you stop after the first fret)

D-------------------------------            |
A-------------------------------            |
F-------------------------------           /
C-1-1-1-1-1-1-1-1---------------   
G-1-1-1-1-1-1-1-1---------------    
C-1-1-1-1-1-1-1-1---------------












                                                END!!!!
            
Submit corrections

comments powered by Disqus
↑ Back to top | Hanzel Und Gretyl Tabs for Fikk Dich Mit Feuer. Lyrics for acoustic guitar and electric guitar. 1 Tablatures and chords are parodies/interpretations of the original songs. You may use it for private study, scholarship, research or language learning purposes only