» » »

Hanzel Und Gretyl, Disko Fire Scheiss Messiah Tabs (ver.1)

Artists:  A B C D E F G H I J K L M N O P Q R S T U V W X Y Z # 

Disko Fire Scheiss Messiah Tabs (ver.1)

Hanzel Und Gretyl Tabs
Rating:
0/5 (0 votes)
Hard to play? Try these video lessons and learn fast.
                
Legend:
h = hammer-on
p = pull-off
b = bend to note
rb= release bend
/ = slide to fret
~ = vibrato
PM... = palm-muting of dotted sections
x = pick scr*pe

Tuning: Drop C


Riff 1

D-------------------------------------------
A-------------------------------------------
F-------------------------------------------
C-0--0-2-2-2-2-2-2-2-2-3--3-2-2-2-2-2-2-2-2-
G-0--0-2-2-2-2-2-2-2-2-3--3-2-2-2-2-2-2-2-2-
C-0--0-2-2-2-2-2-2-2-2-3--3-2-2-2-2-2-2-2-2-



-------------------------------------------|
-------------------------------------------|
-------------------------------------------|
-0-2-2-2-2-2-2-2-2-5--3-2-2-2-2-2-2-2-2----| 
-0-2-2-2-2-2-2-2-2-5--3-2-2-2-2-2-2-2-2----|
-0-2-2-2-2-2-2-2-2-5--3-2-2-2-2-2-2-2-2----|


Listen to the song for the rhythm... it's too hard to tab.







Riff 2

D----------------------------------------------------------------------|
A----------------------------------------------------------------------|
F----------------------------------------------------------------------|
C--3-0-0-5-0-0-6-0-3-0-0-0-5-0-0-6-0-0-3-0-0-5-0-0-6-0-3-0-0-0-5h6p5h6-|
G--3-0-0-5-0-0-6-0-3-0-0-0-5-0-0-6-0-0-3-0-0-5-0-0-6-0-3-0-0-0-5h6p5h6-|
C--3-0-0-5-0-0-6-0-3-0-0-0-5-0-0-6-0-0-3-0-0-5-0-0-6-0-3-0-0-0-5h6p5h6-|




Riff 3

D-----------------------------------------------------------------------|
A-----------------------------------------------------------------------|
F-----------------------------------------------------------------------|
C--10---------------9----------------3----------------------------------|
G--10---------------9----------------3----------------------------------|
C--10---------------9----------------3----------------------------------|







Riff 4 (Played over synthed (i think) part)

D----------------------------------------------
A------------------------9---------------------
F----------------------------7-----------------
C--0-0----0-0----0-0---------------------------
G--0-0----0-0----0-0-------------8-----10---11-
C--0-0----0-0----0-0----------------0----------


-----------------------------------------------|
--------------------------9--------------------|
----------------------7-------7---10---8~------|
--0-0----0-0----0-0----------------------------|
--0-0----0-0----0-0----------------------------|
--0-0----0-0----0-0----------------------------|


The second single notes bit i found very hard to tab, even after slowing it down, as i think
there might be 2/3 parts being played at the same time, but this is roughly what i could 
make out .

 Also i think loopy uses pinch harmonics, but i can't play them, as i havn't learn
quite a few techniques on electric guitar, but there is definatly a squeal on the 9, and 
somewhere later on.





Riff 5 (very end from 23 seconds from end)

D--------------------------------------------------------------------------|
A--------------------------------------------------------------------------|
F--------------------------------------------------------------------------|
C-0-2-2-2-2-2-2-2-2-5-3-2-2-2-2-2-2-2-2-0-2-2-2-2-2-2-2-2-3-2-2-2-2-2-2-2-2|
G-0-2-2-2-2-2-2-2-2-5-3-2-2-2-2-2-2-2-2-0-2-2-2-2-2-2-2-2-3-2-2-2-2-2-2-2-2|
C-0-2-2-2-2-2-2-2-2-5-3-2-2-2-2-2-2-2-2-0-2-2-2-2-2-2-2-2-3-2-2-2-2-2-2-2-2|
pm. . . . . . . . . . . . . . . . . . . . . . . . . . . . . . . . . . . . . 







STRUCTURE

Intro : 	
		Riff 1  x2


Verse : 	
		SILENCE/BASS x2
        	Riff 1  x2


Chorus: 	
		Riff 2  x1
        	Riff 1  x1
		Riff 2  x1
        	Riff 1  x1
        	Riff 3  x1
	Half of	Riff 1  x1
        	Riff 3  x1
	Half of Riff 1  x1


Verse : 	
		SILENCE/BASS x2
        	Riff 1  x2


Chorus: 	
		Riff 2  x1
        	Riff 1  x1
		Riff 2  x1
        	Riff 1  x1
        	Riff 3  x1
	Half of Riff 1  x1
        	Riff 3  x1
        	Riff 1  x1


Middle: 	
		Riff 1  x1
        	Riff 4  x1
        	Riff 1  x1
        	Riff 4  x1
        	Riff 1  x1
        	Riff 3  x1
	Half of Riff 1  x1
	Half of Riff 3  x1



Outro:  	
		Riff 1  x1
		Riff 3  x1
		Riff 1  x1
		Riff 3  x1
		Riff 1  x1
		Riff 3  x1
		Riff 1  x1
	Half of	Riff 3  x1
		Riff 5  x2
            

comments powered by Disqus
↑ Back to top | Hanzel Und Gretyl Tabs for Disko Fire Scheiss Messiah. Lyrics for acoustic guitar and electric guitar. Tablatures and chords are parodies/interpretations of the original songs. You may use it for private study, scholarship, research or language learning purposes only