» » »

Der Furor Tabs (ver.1)

Artists:  A B C D E F G H I J K L M N O P Q R S T U V W X Y Z # 

Der Furor Tabs (ver.1)

Hanzel Und Gretyl
Rating:
0/5 (0 votes)

Hard to play? Try these video lessons and learn fast.
                -----------------------------------------------------------------------------
                "DER FUROR" - Hanzel und Gretyl
-----------------------------------------------------------------------------

Tuning: DROP C


There are four parts to this and they just repeat.



D|----------------------------------------------------------------------------|
A|----------------------------------------------------------------------------|
F|----------------------------------------------------------------------------|
C|----------------------------------------------------------------------------|
G|--6\5--6\5--6\5--3/5---6/8888-7777-------6\5--6\5--6\5--3/5---6/8888--7-----|
C|----------------------------------------------------------------------------|


D|----------------------------------------------------------------------------|
A|----------------------------------------------------------------------------|
F|----------------------------------------------------------------------------|
C|----------------------------------------------------------------------------|
G|-0--1111---3333--4444---x3-|--7777-6666--9999---88--------------------------|
C|-0--1111---3333--4444---x3-|--7777-6666--9999---88--------------------------|

D|---------------------------------------------------------------------------|
A|---------------------------------------------------------------------------|
F|---------------------------------------------------------------------------|
C|---------------------------------------------------------------------------|
G|-1-00--1-00--1-00--1-00----------------------------------------------------|
C|-1-00--1-00--1-00--1-00----------------------------------------------------|

not 100% sure on this part.
D|------------------------------------------------------------------------------|
A|------------------------------------------------------------------------------|
F|------------------------------------------------------------------------------|
C|------------------------------------------------------------------------------|
G|--------6\5-------------------------------------------------------------------|
C|-000----------1\0-0--333--444-------------------------------------------------|
************************************

| /   slide up
| \   slide down
| h   hammer-on
| p   pull-off
| ~   vibrato
| +   harmonic
| x   Mute note
| b   Bend
| pb  Pre-bend
| br  Bend release
| pbr Pre-bend release
| brb Bend release bend

************************************
            
Hard to play? Try these video lessons and learn fast. | Correct




comments powered by Disqus
↑ Back to top | Tablatures and chords are parodies/interpretations of the original songs. You may use it for private study, scholarship, research or language learning purposes only