» » »

Burning Bush Tabs (ver.1)

Artists:  A B C D E F G H I J K L M N O P Q R S T U V W X Y Z # 

Burning Bush Tabs (ver.1)

Hanzel Und Gretyl
Rating:
0/5 (0 votes)
Tabs too difficult? Try these video lessons and learn fast.
                
Legend:
h = hammer-on
p = pull-off
b = bend to note
rb= release bend
/ = slide to fret
~ = vibrato
PM... = palm-muting of dotted sections
x = pick scr*pe




Tuning: Drop C





Riff 1

D-----------------------------------------------------------------------|
A-----------------------------------------------------------------------|
F-----------------------------------------------------------------------|
C--0--1--3-1-0--6--3--5--3--1-3-----------------------------------------|
G--0--1--3-1-0--6--3--5--3--1-3-----------------------------------------|
C--0--1--3-1-0--6--3--5--3--1-3-----------------------------------------|
pm .  .  . . . 



Riff 2

D-----------------------------------------------------------------------|
A-----------------------------------------------------------------------|
F-----------------------------------------------------------------------|
C--0-0-0-0-0-0-0-0-6-0-0-6-0-0-6-----3-3-3-3--2-2-2-1-------------------|
G--0-0-0-0-0-0-0-0-6-0-0-6-0-0-6-x3--3-3-3-3--2-2-2-1-------------------|
C--0-0-0-0-0-0-0-0-6-0-0-6-0-0-6-----3-3-3-3--2-2-2-1-------------------|
pm . . . . . . . . . . . . . . .

Riff 3 (played under solo)

D-----------------------------------------------------------------------|
A-----------------------------------------------------------------------|
F-----------------------------------------------------------------------|
C--0---0------0--3--2--1--0--3--2--1------------------------------------|
G--0---0------0--3--2--1--0--3--2--1------------------------------------|
C--0---0------0--3--2--1--0--3--2--1------------------------------------|



Solo (I can't work this out sorry, if someone else does please comment me
      and i will add it on to this tab)

D-----------------------------------------------------------------------|
A-----------------------------------------------------------------------|
F-----------------------------------------------------------------------|
C-----------------------------------------------------------------------|
G-----------------------------------------------------------------------|
C-----------------------------------------------------------------------|
            
Tabs too difficult? Try these video lessons and learn fast.


comments powered by Disqus
↑ Back to top | Tablatures and chords are parodies/interpretations of the original songs. You may use it for private study, scholarship, research or language learning purposes only